Goo Goo Dolls - Broadway Chords & Tabs

 

Broadway Chords & Tabs

Goo Goo Dolls Chords & Tabs

Version: 1 Type: Tab 0 ratings
1 star 2 stars 3 stars 4 stars 5 stars
comments

Broadway Tab

   
T1: M, maaike_siegerist@wxs.nl, Goo Goo Dolls, Broadway, previously
 unreleased 

 S1:
 ***********************************************************************************

 * Man, I love this song! It's so great! But what did you expect from the
 Goo * 
 * Goo Dolls? Although the Dolls use weird guitar tunings, I've made this
 tab for * 
 * standard tuning: E A D G B E. I just followed the bass-line, and this
 way the * 
 * chords sounds great and pretty close to the original. * 
 * If you like the Goo Goo Dolls, please come visit my site: * 
 *"IT'S ALL ABOUT THE GOO GOO DOLLS",
 http://home.planet.nl/~aardvark/goohome.html * 
 ***********************************************************************************


 Song: Broadway 
 Artist: Goo Goo Dolls 
 Written by: John Rzeznik 
 Album: Dizzy Up The Girl 
 Tabbed out by: M (maaike_siegerist@wxs.nl) 

 The chords: B: 224442 
 G#m: 466444 
 F#: 244322 
 E: 022100 

 [INTRO] (one guitar plays chords, the other a little solo) 

 B G#m B G#m B G#m E G#m F# 
 E|----|----|----|---------|-2--|-------------------|--------------|-----|

 B|----|----|----|-----0-2-|----|-----0--0--0-2-4-2-|--0----4-2--0-|-----|

 G|----|----|----|---------|----|-------------------|1---1---------|-----|

 D|----|----|----|---------|----|-------------------|--------------|4----|

 A|----|----|----|---------|----|-------------------|--------------|-----|

 E|----|----|----|---------|----|-------------------|--------------|-----|



 [BRIDGE] (one guitar plays this riff) 

 E|---2----2----2--2-2-2|---2----2----2--2-2--|---2----2----2--2-2-2| 
 B|--0-0--0-0--0-0------|--0-0--0-0--0-0--0-0-|--0-0--0-0--0-0------| 
 G|---------------------|---------------------|---------------------| 
 D|---------------------|---------------------|---------------------| 
 A|---------------------|---------------2-----|---------------------| 
 E|4----2----0----------|4----2----0----------|4----2----0----------| 

 E|-2--2-2-2----2----2-|---2--2-2----2----2-| 
 B|0-0---------0-0--0-0|--0-0--0-0--0-0--0-0| 
 G|--------------------|--------------------| 
 D|--------------------|----------1---------| 
 A|--------------------|---------------2----| 
 E|----------4----2----|0-------------------| 

 Broadway is dark tonight 
 A little bit weaker than you used to be 
 Broadway is dark tonight 
 See the young man sitting in the old man's bar 
 (rythm fig. 1) 
 Waiting for his turn to die 


 B G#m B G#m 
 rythm fig. 1: E|2---------|---------|--2---|4-2-----------| 
 B|----------|-0---2-4-|------|-----4--2/1-0-| 
 G|----------|---------|------|--------------| 
 D|----------|---------|------|--------------| 
 A|----------|---------|------|--------------| 
 E|----------|---------|------|--------------| 
 [VERSE] 
 B G#m 
 The cowboy kills the rockstar 
 B G#m 
 And Friday night's gone too far 
 B G#m 
 The dim light hides the years 
 E 
 On all the faded girls 


 B G#m 
 Forgotten but not gone 
 B G#m 
 You're drinking off your mind 
 B G#m 
 You talk about the world 
 B G#m F# 
 Like it's some place that you've been 


 [PRE-CHORUS] 
 G#m 
 You see you'd love to run home 
 But you konow you ain't got one 
 E 
 Cuz you're living in a world 
 (rythm fig. 2) 
 That you're best forgotten 'round here 

[ Tab from: http://www.guitartabs.cc/tabs/g/goo_goo_dolls/broadway_tab.html ]
 B G#m F# E F# 
 rythm fig. 2: E|2----2----4--2~----2--0---0-2-2-2-- 
 B|4----4----4--2~----2--0---0-2-2-2-- 
 G|4----4----4--3~----3--1---1-3-3-3-- 
 D|4----4----6--4~----4--2---2-4-4-4-- 
 A|2----2----6--4~----4--2---2-4-4-4-- 
 E|----------4--2~----2--0---0-2-2-2-- 

 [CHORUS] 
 G#m F# E 
 Broadway is dark tonight 
 G#m F# E B 
 A little bit weaker than you used to be 
 G#m F# E 
 Broadway is dark tonight 
 G#m F# 
 See the young man sitting 
 E 
 In the old manís bar 
 G#m C#m B 
 Waiting for his turn to die 


 [VERSE] 
 B G#m 
 You choke down all your anger 
 B G#m 
 Forget your only son 
 B G#m 
 You pray to statues 
 E 
 When you're sober or for fun 

 B G#m 
 Your anger don't impress me 
 B G#m 
 The world slapped in your face 
 B G#m 
 It always rains like hell 
 B G#m F# 
 On the losers day parade 


 [PRE-CHORUS] 
 G#m 
 You see you'd love to run home 
 But you know you ain't got one 
 E 
 Cuz you're living in a world 
 That you're best forgotten 
 G#m 
 When you're thinking of a joke 
 And nobody's gonna listen 
 E 
 To the one small point 
 I know they've been missing 
 (rythm fig. 2) 
 Around here 

 [CHORUS] 
 G#m F# E 
 Broadway is dark tonight 
 G#m F# E B 
 A little bit weaker than you used to be 
 G#m F# E 
 Broadway is dark tonight 
 G#m F# 
 See the young man sitting 
 E 
 In the old manís bar 
 G#m C#m (solo) 
 Waiting for his turn to die 


 [SOLO] 
 B G#m B G#m 
 E|---2-----------|----------------|---2-----------|-----------------| 
 B|-2---4---2-4---|5---4--2---4-2-0|-2---4---2-4---|5---4--2---4-----| 
 G|---------------|----------------|---------------|-----------------| 
 D|---------------|----------------|---------------|-----------------| 
 A|---------------|----------------|---------------|-----------------| 
 E|---------------|----------------|---------------|-----------------| 

 C#m F# C#m F# 
 E|---------------|----------2-----|---------------|--2-----4----6/7-| 
 B|-5----4--2-2-0-|----4-4-----4---|-5----4--2-4-5-|-----------------| 
 G|---------------|-4--------------|---------------|-----------------| 
 D|---------------|----------------|---------------|-----------------| 
 A|---------------|----------------|---------------|-----------------| 
 E|---------------|----------------|---------------|-----------------| 

 [PRE-CHORUS] 
 G#m 
 You see you'd love to run home 
 But you know you ain't got one 
 E 
 Cuz you're living in a world 
 That you're best forgotten 
 G#m 
 When you're thinking of a joke 
 And nobody's gonna listen 
 E 
 To the one small point 
 I know they've been missing 

 F# E F# E 
 E|---------------|----------------|---------------|-----------------| 
 B|---------------|----------------|----2--2-0----2|-4--2------------| 
 G|---------------|----------------|--4------------|-------4--1------| 
 D|---------------|----------------|-4-------------|-------------4---| 
 A|---------------|----------------|---------------|-----------------| 
 E|---------------|----------------|---------------|-----------------| 
 'round here 'round here 


 [CHORUS] 
 G#m F# E 
 Broadway is dark tonight 
 G#m F# E B 
 A little bit weaker than you used to be 
 G#m F# E 
 Broadway is dark tonight 
 G#m F# 
 See the young man sitting 
 E 
 In the old manís bar 
 G#m C#m B 
 Waiting for his turn to die 


 ******* Please mail me for any corrections: maaike_siegerist@wxs.nl
 ******** 
Comments