Goo Goo Dolls - Big Machine Chords & Tabs

 

Big Machine Chords & Tabs

Goo Goo Dolls Chords & Tabs

Version: 1 Type: Tab 2 ratings
1 star 2 stars 3 stars 4 stars 5 stars
comments

Big Machine Tab

   
Goo Goo Dolls - Big Machine
      

Tuning: 1/2 Step Down (Eb Ab Db Gb Bb Eb)


Intro/verse

Eb|--------------------------------------------||
Bb|--------------------------------4-4-4--4-4-4||
Gb|-8/9-9-9--8-8-x-x-8/9-9-9--8-8--4-4-4--4-4-4||
Db|-9-9-9-9--9-9-x-x-9-9-9-9--9-9--6-6-6--6-6-6||
Ab|-7-7-7-7--7-7-x-x-7-7-7-7--7-7--6-6-6--6-6-6||
Eb|--------------------------------4------4----||


Eb|---------------------------------------------------||
Bb|---------------------------------------------------||
Gb|-8/9-9-9--8-8-x-x-8/9-9-9--8-8---------------------||
Db|-9-9-9-9--9-9-x-x-9-9-9-9--9-9--4--2-2--6--4-4-2-2-||
Ab|-7-7-7-7--7-7-x-x-7-7-7-7--7-7--4--2-2--6--4-4-2-2-||
Eb|--------------------------------2--0-0--4--2-2-0-0-||

Chorus
[ Tab from: http://www.guitartabs.cc/tabs/g/goo_goo_dolls/big_machine_tab.html ]
Eb|--------------|-------------------||
Bb|--------------|-------------------||
Gb|-4-4-4--------|-------------------|| x2
Db|-4-4-4--4-4-4-|-6-6-6--4-4-4------||
Ab|-2-2-2--4-4-4-|-6-6-6--4-4-4------||
Eb|--------2-2-2-|-4-4-4--2-2-2------||
  (lead guitar)
Eb|----------|------------|| 
Bb|------7---|-5-4--------|| play this twice over the chorus
Gb|-4-6-8--6-|-----4-6-6--||
Db|----------|------------||
Ab|----------|------------||
Eb|----------|------------||

Eb|------||
Bb|-12---||
Gb|-11---|| play this after chorus
Db|-9----||
Ab|-9----||
Eb|------||
 
verse

chorus

Bridge

Eb|----------------||
Bb|--12------------||
Gb|--11------------|| play this again
Db|--9-------------||
Ab|--9-------------||
Eb|----------------||

outro

(guitar 1)
Eb|--------------|----------------||
Bb|--------------|----------------||
Gb|--------------|----------------||
Db|-6-6-6--4-4-4-|-2-2-2----------||
Ab|-6-6-6--4-4-4-|-2-2-2----------||
Eb|-4-4-4--2-2-2-|-0-0-0----------||
   
(guitar 2)
Eb|--------------|------------------------------------||
Bb|-5-4----------|-12---------------------------------||
Gb|-----4-6-6-6-4|-11---------------------------------||
Db|--------------|-9----------------------------------||
Ab|--------------|-9----------------------------------||
Eb|--------------|------------------------------------||

End on this
Eb|-0---------------||
Bb|-0--------12-----||
Gb|-0---or---11-----||
Db|-2--------9------||
Ab|-2--------9------||
Eb|-0---------------||
Comments