Goo Goo Dolls - Big Machine Acoustic Chords & Tabs

 

Big Machine Acoustic Chords & Tabs

Goo Goo Dolls Chords & Tabs

Version: 1 Type: Chords 0 ratings
1 star 2 stars 3 stars 4 stars 5 stars
comments

Big Machine Acoustic Chords

   
----------------------------------------------------------------------------
		     Big Machine (acoustic) - goo goo dolls
----------------------------------------------------------------------------
Tabbed by: Andy S.
Email: Lemur_24@Hotmail.com

Tuning: Standard

Guitar 1 G (330023) em (000220) D (332002) 
Guitar 2 G (000553) em (000220) D (032000)

h = hammer on

Riff 1
Guitar 1
e|----5---5---5---5---5---5---5---5---5---5---5---5--|
B|----5---5---5---5---5---5---5---5---5---5---5---5--|
G|----6h7-7---7---7---6---6---6h7-7---7---7---6---6--|
D|----7---7---7---7---7---7---7---7---7---7---7---7--|
A|----5---5---5---5---5---5---5---5---5---5---5---5--|
E|----5---5---5---5---5---5---5---5---5---5---5---5--|
Guitar 2
e|----0---0---0---0---0---0---0---0---0---0---0---0--|
B|----0---0---0---0---0---0---0---0---0---0---0---0--|
G|----8h9-9---9---9---8---8---8h9-9---9---9---8---8--|
D|----9---9---9---9---9---9---9---9---9---9---9---9--|
A|----7---7---7---7---7---7---7---7---7---7---7---7--|
E|----0---0---0---0---0---0---0---0---0---0---0---0--|

Riff 2
Guitar 1
e|----4---4---4----4---4---4---4---|
B|----4---4---4----4---4---4---4---|
G|----6---6---6----6---6---6---6---|
D|----6---6---6----6---6---6---6---|
A|----4---4---4----4---4---4---4---|
E|----4---4---4----4---4---4---4---|
Guitar 2
e|----0---0---0----0---0---0---0---|
B|----0---0---0----0---0---0---0---|
G|----8---8---8----8---8---8---8---|
D|----8---8---8----8---8---8---8---|
A|----6---6---6----6---6---6---6---|
E|----0---0---0----0---0---0---0---|
[ Tab from: http://www.guitartabs.cc/tabs/g/goo_goo_dolls/big_machine_acoustic_crd.html ]
Riff 1
Guitar 1
e|----5---5---5---5---5---5---5---5---5---5---5---5--|
B|----5---5---5---5---5---5---5---5---5---5---5---5--|
G|----6h7-7---7---7---6---6---6h7-7---7---7---6---6--|
D|----7---7---7---7---7---7---7---7---7---7---7---7--|
A|----5---5---5---5---5---5---5---5---5---5---5---5--|
E|----5---5---5---5---5---5---5---5---5---5---5---5--|
Guitar 2
e|----0---0---0---0---0---0---0---0---0---0---0---0--|
B|----0---0---0---0---0---0---0---0---0---0---0---0--|
G|----8h9-9---9---9---8---8---8h9-9---9---9---8---8--|
D|----9---9---9---9---9---9---9---9---9---9---9---9--|
A|----7---7---7---7---7---7---7---7---7---7---7---7--|
E|----0---0---0---0---0---0---0---0---0---0---0---0--|
Riff 3
Guitar 1
e|----2---0---0----4---2--2---0---|
B|----2---0---0----4---2--2---0---|
G|----4---2---2----6---4--4---2---|
D|----4---2---2----6---4--4---2---|
A|----2---0---0----4---2--2---0---|
E|----2---0---0----4---2--2---0---|
Guitar 2
e|----0---0---0----0---0--0---0---|
B|----0---0---0----0---0--0---0---|
G|----6---4---4----8---6--6---4---|
D|----6---4---4----8---6--6---4---|
A|----4---2---2----6---4--4---2---|
E|----0---0---0----0---0--0---0---|


(Riff 1)
Ecstasy is all you need living in the big machine
(Riff 2)
now Oh your so vain 
(Riff 1)
Now your world is way to fast nothings real and nothing lasts
(Riff 3)
and I'm aware im in love but you dont care
(Riff 1)
Turn your anger into lust I'm still here but you dont trust 
(Riff 2)
At all and ill be waiting
(Riff 1)
Love and sex and lonliness Take what's yours and leave the rest
(Riff 3)
So I'll survive God it's good to be alive

Chorus 
G              D
I'm torn in pieces
Em               D
I'm blind and waiting for you
G              D
My heart is reeling
Em              D         G
I'm blind and waiting for you

Verse2

Still love with all your sins
Wher you stop and I begin
And I'll be waiting
Living like a house on fire
What you fear is your desire
It's hard to deal
I still love the way you feel
Now this angry little girl
Drowning in this pretty world
Oh who you run to
Swallow all your bitter pills
That's what makes you beautiful
You're all or not
I don't need what you ain't got

Chorus

I'm torn in pieces
I'm blind and waiting for you
My heart is reeling
I'm blind and waiting for you
I'm blind and waiting for you
I'm blind and waiting for you 

 =============================================================================
Comments