Gondwana - Guerra Chords & Tabs

 

Guerra Chords & Tabs

Gondwana Chords & Tabs

Version: 2 Type: Bass Tab 0 ratings
1 star 2 stars 3 stars 4 stars 5 stars
comments

Guerra Bass Tab

"Guerra" de Gondwana
--------------------
Tab por Marcos Fuentes Bajista de Los Paragoyos.
Correcciones a spooky@spookyland.cjb.net
http://paragoyos.cjb.net

Intro:
D|---------------|
G|---------------|
A|---------------|
E|-3----3/15\3---|
[ Tab from: http://www.guitartabs.cc/tabs/g/gondwana/guerra_btab_ver_2.html ]
Verso y Coro:
D|----------------|-----------------|
G|----------------|-----------------|
A|-------1---1-33-|-----------------|
E|-33333---2------|-11111-3-3-2-33-|

Cuando dice: Yo se que esto va a cambiar...

D|-------------------|
G|-------------------| x3
A|--------5-3-1-3-1--|
E|-11111-----------3-|

D|-------------|
G|-------------|
A|-----5-------|
E|--3----------|

Solo:

D|-----------------|----------------|
G|-----------------|----------------|
A|--------1---1-33-|----------------|
E|--33333---2------|-33333-3/15\3-3-|

Comments