Gondwana - Armonia De Amor Chords & Tabs

 

Armonia De Amor Chords & Tabs

Gondwana Chords & Tabs

Version: 1 Type: Bass Tab 0 ratings
1 star 2 stars 3 stars 4 stars 5 stars
comments

Armonia De Amor Bass Tab

"Armonia de Amor" de Gondwana
-----------------------------
Tab por Marcos Fuentes Bajista de Los Paragoyos.
Correcciones a spooky@spookyland.cjb.net
http://paragoyos.cjb.net

Verso y Coro:
D|-------------------------|
G|-------------------------|
A|-------444---------------|
E|--555-5---555-777-700-34-| hartas veces hasta:

[ Tab from: http://www.guitartabs.cc/tabs/g/gondwana/armonia_de_amor_btab.html ]
D|------------------------|--------|-------------|--------------|
G|------------------------|--3-----|---3---------|--3--------2--|
A|-------444--------------|--------|-----4-------|-----4--------|
E|--555-5---555-777-700-3-|-----1--|-4-----4-1---|-4------4-----|
                                 Nunca te alejes de mi...

D|-2--------------|--------------|--------------|---------------|
G|------2---------|---3----------|---3----------|---------------|
A|---2-----2------|-----4--------|-----4--------|--------5------|
E|------------4-1-|-4-----4--1---|-4-----4--1---|-5---0-----0---| Vuelve al Coro

Comments