Gomez - Sweet Virginia Chords & Tabs

 

Sweet Virginia Chords & Tabs

Gomez Chords & Tabs

Version: 1 Type: Tab 0 ratings
1 star 2 stars 3 stars 4 stars 5 stars
comments

Sweet Virginia Tab

   
OK - trying to do this from memory without a guitar in front of me, this is the basic 
riff throughout the verses of the song...


e----------------------------------------------|
b----------------------------------------------|
g----------------------------------------------|
d--6h7p6--------6h7p6--------7h9p7~~---9-7-9~~-|
a--------6--3---------6--3---------------------|
E----------------------------------------------|
[ Tab from: http://www.guitartabs.cc/tabs/g/gomez/sweet_virginia_tab.html ]
to "and now there's no answer..."
                                   "Take it all if you want.."
   Em     Ebm    C     G           C   G   C   G
e--7------6------3-----3-----------3---3---3---3---|
b--8------7------5-----3-----------5---3---5---3---|
g--9------8------5-----4-----------5---4---5---4---|
d--9------8------5-----5-----------5---5---5---5---|
a--7------6------3-----5----(0)(2)(3)--5---3---5---|
E----------------------3-(3)-----------3-------3---|

"If you know how to run ..."

   C      Em     G
e--8------7------3-----|
B--8------8------3-----|
g--9------9------4-----|    Etc...
d--10-----9------5-----|
a--10-----7------5-----|
E--8-------------3-----|

Then the outro bass bit is just

a-----------3------------|  repeat
E--3~~~---6--------------|


Ok - it may not be perfect but it seems to be the only one on the net so if you wanna 
me for corrections: lhu03bhm@rdg.ac.uk
Comments