Gomez - In Our Gun Chords & Tabs

 

In Our Gun Chords & Tabs

Gomez Chords & Tabs

Version: 1 Type: Tab 0 ratings
1 star 2 stars 3 stars 4 stars 5 stars
comments

In Our Gun Tab

   
Tabbed by Smidy 
Email - smidy2@hotmail.com
site - smidy.cjb.net
If its wrong tell me please.
I have it tabbed with all bar chords to make it easier.unless you dont like bar chords
The chords are done on an acoustic I think and the riff is on an electric with delays 
where ever I put long spaces.A capo on the 3rd fret helps in the riff and some chords.

E A D G B E
4/4

 Cm.              3 3 5 5 4 3
 G#.              4 6 6 5 4 4 
 D#.              3 6 5 3 4 3  or  6 6 8 8 8 6
 A#.              6 5 3 3 3 6  or  6 8 8 7 6 6
 G                3 5 5 4 3 3 

vers and intro

Cm G#


Cm G G# G X 2 times then chorus

chorus
D# A# D# A#
	     X2
D# A# G# A#

chorus 2nd time
D# A# D# A#
D# A# G# A#
D# A# D# A#
D# A# G



Riff bit
[ Tab from: http://www.guitartabs.cc/tabs/g/gomez/in_our_gun_tab.html ]
 |       |       |       |        |       |       |       |        
|--------------------------------|--------------------------------|
|--------4-----------------------|3/4-----6----3------------------|
|----5---------------------------|--------------------------------|
|5-------------------------------|--------------------------------|
|--------------------------------|--------------------------------|
|--------------------------------|--------------------------------|

 |       |       |       |        |       |       |       |        
|--------3-4-----6---------------|3---4-------------3-------------|
|--------------------------------|--------------------------------|
|5-------------------------------|--------------------------------|
|--------------------------------|--------------------------------|
|--------------------------------|--------------------------------|
|--------------------------------|--------------------------------|

 |       |       |       |        |       |       |       |        
|--------------------------------|--------------------------------|
|6-------4----------6----3-------|--------------------------------|
|--------------------------------|--------------------------------|
|--------------------------------|--------------------------------|
|--------------------------------|--------------------------------|
|--------------------------------|--------------------------------|
Comments