Gomez - Do One Chords & Tabs

 

Do One Chords & Tabs

Gomez Chords & Tabs

Version: 1 Type: Tab 0 ratings
1 star 2 stars 3 stars 4 stars 5 stars
comments

Do One Tab

   
Gomez - Do One
Album: Split The Difference

Chords used

    G  A   F   E or     D     Am
e:--3--5---1---0---7----10-----5--------------|
B:--3--5---1---0---9----10-----5--------------|
G:--4--5---2---1---9----11-----5--------------|
D:--5--7---3---2---9----12-----7--------------|
A:--5--7---3---2---7----12-----7--------------|
E:--3--5---1---0--------10-----5--------------|


Intro/Chorus riff - guitar 1
[ Tab from: http://www.guitartabs.cc/tabs/g/gomez/do_one_tab.html ]
e:-------------------------------------------|
B:-------------------------------------------|
G:-------------------------------------------|
D:-5/7-7-7-7/11-11-11-x--12~-12-x-13-14-12---|
A:-------------------------------------------|
E:-3/5-5-5-5/9--9--9--x--10~-10-x-11-12-10---|


Intro/Chorus Riff guitar 2

I'm sure this bit is not spot on, but it
might help someone do it better. Think it
changes slightly the second time.

e:-----------------------------------|
B:--10--10--12b~r-12------12--10-----|
G:-9--9---9----------9------------9--|
D:-----------------------------------|
A:-----------------------------------|
E:-----------------------------------|

Verse

Just the chords for the verse and bridge

G    A     F     E


Bridge


D  Am   D    Am    D  C  G  E


comments/corrections
n.cameron@student.canberra.edu.au
Comments