Gomez - Bring It On Chords & Tabs

 

Bring It On Chords & Tabs

Gomez Chords & Tabs

Version: 2 Type: Bass Tab 0 ratings
1 star 2 stars 3 stars 4 stars 5 stars
comments

Bring It On Bass Tab

===========
Bring It On (Bassline)
===========

Transcribed by Richard Averill.
E-mail me at nigelolympus@tinet.ie

|----------------------------------------------------|
|"Make No Sound" (The Gomez Guitar Tablature Archive)|
|----------------------------------------------------|
|         www.cyberia.ie/~shza/gomez.html            |
|----------------------------------------------------|

------
Chorus
------

1|---------------------------------|-----------------2---------------|
2|-4-------------------------------|---------4---------------4-------|
3|-----------------4-----------2---|---------------------------------|
4|---------2-----------------------|---------------------------------|
   1   +   2   +   3   +   4   +     1   +   2   +   3   +   4   +
[ Tab from: http://www.guitartabs.cc/tabs/g/gomez/bring_it_on_btab_ver_2.html ]
   Bring   it      on,         make          it      right.

-----
Verse
-----

(1:01)

1|---------------------------------|---------------------------------|
2|-2-----4---------2-----4---------|-2-----4---------2-----4---------|
3|---------------4-----------------|---------------4-----------------|
4|---------------------------------|---------------------------------|
   1   +   2   +   3   +   4   +     1   +   2   +   3   +   4   +

(1:16)

1|---------------------------------|---------------------------------|
2|-------5-------------------------|---------------------------------|
3|-?-------------------------------|---------------------------------|
4|---------------------------------|---------------------------------|
   1   +   2   +   3   +   4   +     1   +   2   +   3   +   4   +
Comments