Gomez - 78 Stone Wobble Chords & Tabs

 

78 Stone Wobble Chords & Tabs

Gomez Chords & Tabs

Version: 2 Type: Bass Tab 0 ratings
1 star 2 stars 3 stars 4 stars 5 stars
comments

78 Stone Wobble Bass Tab

===============
78 Stone Wobble (Bassline)
===============

Transcribed by Richard Averill.
E-mail to: nigelolympus@tinet.ie

|----------------------------------------------------|
|"Make No Sound" (The Gomez Guitar Tablature Archive)|
|----------------------------------------------------|
|         www.cyberia.ie/~shza/gomez.html            |
|----------------------------------------------------|

-----
Notes
-----
[ Tab from: http://www.guitartabs.cc/tabs/g/gomez/78_stone_wobble_btab_ver_2.html ]
The bass is quite hard to distinguish in this song, but
I think he just plays the root notes of the guitar chords
during the verses (this is what is given below). This
is possibly played on a double-bass.

Tune normally. The tempo is 97 beats per minute.

1|---------------------------------|
2|---------------------------------|
3|---------------------------------|
4|---------------------------------|
5|-----------------1-------3-------|
6|-3-----------3-------------------|
   1   +   2   +   3   +   4   +

(Chorus)

G|-------------
D|22-11-00-----
A|--------44-33
E|-------------
Comments