Goldie Lookin Chain - 21 Ounces Chords & Tabs

 

21 Ounces Chords & Tabs

Goldie Lookin Chain Chords & Tabs

Version: 1 Type: Bass Tab

21 Ounces Bass Tab

-------------------------------------------------------------------------------
			     21 ounces - Goldie looking chain
-------------------------------------------------------------------------------

Tabbed By : Zak duarte
e-mail: zakduarte@aol.com

Tuning: regular
[ Tab from: http://www.guitartabs.cc/tabs/g/goldie_lookin_chain/21_ounces_btab.html ]
Intro:
G|--0-2-3-4--4-444--0-2-3-4--4-444------------------------------------------|
D|---------------------------------0-2-3-4--4-444--0-4-5-6--6-666-----------|
A|--------------------------------------------------------------------------|
E|--------------------------------------------------------------------------|

rest of song:
G|--0-2-3-4---4------0-2-3-4----4-------------------------------------------|
D|------------------------------------0-2-3-4----4----4----0-4-5-6----------|
A|----------6---6-6----------66---66----------------------------------------|
E|--------------------------------------------------6---66---------8-888----|


Repeat that over again
http://www.youknowsit.co.uk/ official website