Goldfinger - The Innocent Chords & Tabs

 

The Innocent Chords & Tabs

Goldfinger Chords & Tabs

Version: 2 Type: Bass Tab 0 ratings
1 star 2 stars 3 stars 4 stars 5 stars
comments

The Innocent Bass Tab

The Innocent 
Goldfinger/Mest/Good Charlotte
Tabbed by Mich

Verse:1st verse do it 3x then after the chorus doit 2x 
G--------------------------------------------------------
D--------------------------------------------------------
A--5-5-5-5-----------------------5-5-5-5----------------- x2
E---------5-5-5-5-7-7-7-7-5-3-3-3-------5-5-5-5-3-3-3-3--
[ Tab from: http://www.guitartabs.cc/tabs/g/goldfinger/the_innocent_btab_ver_2.html ]
Chorus
G-----------------------------------------------
D-----------------------------------------------
A----5-5-5---------2-2-2------------------------ x2
E----------5-5-5-5-------2-2-2-3-3-3-5-5-5-7-7-7
then 
G-----------------------------------------------
D-----------------------------------------------
A-------------------5-5-5-5--------------------- x1
E----3-3-3-3-5-5-5-5----------------------------

Guitar solo is the verse twice
Comments