Goldfinger - Tell Me Chords & Tabs

 

Tell Me Chords & Tabs

Goldfinger Chords & Tabs

Version: 2 Type: Tab 0 ratings
1 star 2 stars 3 stars 4 stars 5 stars
comments

Tell Me Tab

Palm mute: x
Slide: /

Chorus: (play this 4x)
e-------------------------------------------------------------------------------
B-------------------------------------------------------------------------------
G-------------------------------------------------------------------------------
D---------------5-----7-----12--------------------------------------------------
A---------------5x5---7x5---12x5------------------------------------------------
E--10--9--7--5--3-----5-----10--------------------------------------------------
   Tell me what it's like to be with you,
   Remind me of the things we used to do,
   Tell me that this time will never end,
   Tell me what it's like tell me again.

Verse 1: (Distortion, play this 2x)
e-------------------------------------------------------------------------------
B-------------------------------------------------------------------------------
G--7----6-----------------------------------------------------------------------
D--7x4--6x4--9----5----7--------------------------------------------------------
A--5----4----9x8--5x8--7x8------------------------------------------------------
E------------7----3----5--------------------------------------------------------
   Everytime you stay,
   It never feels quite the same,
   And everytime you go,
   It hurts a way you'll never know.

Pre-Chorus: (Distortion)
e-------------------------------------------------------------------------------
B-------------------------------------------------------------------------------
G-------------------------------------------------------------------------------
D--5----2----5----7-------------------------------------------------------------
A--5x8--2x8--5x8--7-(Let the last chord ring)-----------------------------------
E--3----0----3----5-------------------------------------------------------------
   I guess your stories,
   Make me feel like it's all right now.

Chorus: (Bass only, play 4x)
e-------------------------------------------------------------------------------
B-------------------------------------------------------------------------------
G-------------------------------------------------------------------------------
D-------------------------------------------------------------------------------
A-------------------------------------------------------------------------------
E--10--9--7--5--3-3/5-5/10------------------------------------------------------
   Tell me what it's like to be with you,
   Remind me of the things we used to do,
   Tell me that this time will never end,
   Tell me what it's like tell me again.
[ Tab from: http://www.guitartabs.cc/tabs/g/goldfinger/tell_me_tab_ver_2.html ]
Verse 2: (Distortion, play this 2x)
e-------------------------------------------------------------------------------
B-------------------------------------------------------------------------------
G--7----6-----------------------------------------------------------------------
D--7x4--6x4--9----5----7--------------------------------------------------------
A--5----4----9x8--5x8--7x8------------------------------------------------------
E------------7----3----5--------------------------------------------------------
   x    x    x    x    x
   Everything I fear,
   Show's itself everytime your here,
   And everything I know,
   Leaves with you everytime that you go.

Pre-Chorus: (Distortion)
e-------------------------------------------------------------------------------
B-------------------------------------------------------------------------------
G-------------------------------------------------------------------------------
D--5----2----5----7-------------------------------------------------------------
A--5x8--2x8--5x8--7-(Let the last chord ring)-----------------------------------
E--3----0----3----5-------------------------------------------------------------
   I wish your stories,
   Could erase all the things that I said.

Chorus: (Distortion, play this 4x)
e-------------------------------------------------------------------------------
B-------------------------------------------------------------------------------
G-------------------------------------------------------------------------------
D---------------5-----7-----12--------------------------------------------------
A---------------5x5---7x5---12x5------------------------------------------------
E--10--9--7--5--3-----5-----10--------------------------------------------------
   Tell me what it's like to be with you,
   Remind me of the things we used to do,
   Tell me that this time will never end,
   Tell me what it's like tell me again.

Verse 3: (Distortion)
e-------------------------------------------------------------------------------
B-------------------------------------------------------------------------------
G-------------------------------------------------------------------------------
D--9----2----9----10----5----9----2----9----14--12--7---------------------------
A--9x8--2x8--9x8--10x2--5x2--9x8--2x8--9x8--14--12--7---------------------------
E--7----0----7----8-----3----7----0----7----12--10--5---------------------------
   You look that way, 
   (You look that way),
   Don't wanna see you look that way,
   You talk that way,
   (You talk that way),
   Don't wanna feel this way.

Chorus: (play this 2x)
e-------------------------------------------------------------------------------
B-------------------------------------------------------------------------------
G-------------------------------------------------------------------------------
D-------------------------------------------------------------------------------
A-------------------------------------------------------------------------------
E--10--9--7--5--3-3/5-5/10------------------------------------------------------
   Tell me what it's like to be with you,
   Remind me of the things we used to do,

Chorus:
e--------------------------------------------------------------------10---------
B-------------------------------------------------------------------------------
G--------------------------------------------------------------------11---------
D--------------------------------------------------------------------12---------
A-------------------------------------12-10-9-7-5-4------------------12---------
E--10--9--7--5--3-3-7-3-5-5-9-5-10-10---------------3-3-7-3-5-5-9-5--10---------
   And Tell me how this time will never end,
   So tell me what it's like tell me again.

Thats it everyone. It's 100% accurate. But if you find a flaw email me at
Whaleman882002@yahoo.com
Comments