Goldfinger - Superman Chords & Tabs

 

Superman Chords & Tabs

Goldfinger Chords & Tabs

Version: 3 Type: Tab

Superman Tab

   
This song is awesome!!!!
Just hit the bottom strings.
Here are the Chords.
Ska rythym.
Intro
and Verse      
     D    A    Em   Cm   Em   F#m  G     A
e----5----5----7----7----7----9----10----5----|
b----7----5----8----7----8----10---12----5----|
g----7----6----9----7----9----11---12----6----|
d----7----7----9----9----9----11---12----7----|
a----5----7----7----9----7----9----10----7----|
e----5----5----7----7----7----9----10----5----|

So here I am...

     D    A    Em   Bm   G     D    A
e----5----5----7----7----10----5----5----|
b----7----5----8----7----12----7----5----|
g----7----6----9----7----12----7----6----|
d----7----7----9----9----12----7----7----|
a----5----7----7----9----10----5----7----|
e----5----5----7----7----10----5----5----|

I'm trying to keep...

[ Tab from: http://www.guitartabs.cc/tabs/g/goldfinger/superman_tab_ver_3.html ]
Chorus
     G    D    A    F#m  Bm   G    A    D
e----3----5----5----2----2----3----5----5----|
b----3----7----5----2----3----3----5----7----|
g----4----7----6----2----4----4----6----7----|
d----5----7----7----4----4----5----7----7----|
a----5----5----7----4----2----5----7----5----|
e----3----5----5----2----2----3----5----5----|

I'm so confused...

I am not so sure for the bridge but I know theres a

Am F#m Em.

Outro

e------------5--------------------------------------------7--5---------------
b------5--7-----5-5-----------5--------5-5----------------------7--7--5-5-5-5
g---7----------------7--4--7-----7--7--6-6-----4--7--4/7--------7--7--6-6-6-6
d-------------------------------------------5--------------------------------
a5---------------------------------------------------------------------------
e----------------------------------------------------------------------------

e------------5-----5--------------------------------------7--5--------------|
b------5--------5-------------------7---------------------------7--7--5-5---|
g---7-----7-----------4--4--6-7--4-----6--46---4--7--4/7--------7--7--6-6---|
d-------------------------------------------75------------------------------|
a5--------------------------------------------------------------------------|
e---------------------------------------------------------------------------|

End with this Chord

e--5--|
b--7--|
g--7--|
d--7--|
a--5--|
e--5--|