Goldfinger - Superman Chords & Tabs

 

Superman Chords & Tabs

Goldfinger Chords & Tabs

Version: 2 Type: Tab 0 ratings
1 star 2 stars 3 stars 4 stars 5 stars
comments

Superman Tab

Song: Superman
Band: Goldfinger
Album: Hang-ups (1997)
Written by John from Goldfinger
Transcribed by X-Drago (Neozamux@hotmail.com)


[ Tab from: http://www.guitartabs.cc/tabs/g/goldfinger/superman_tab_ver_2.html ]
Solo:
E-------------5-------------------------------------7-5----------
B--------5-7---5--------3-5-3---3-2--------3-----------7---7--5--
G----5/7--------7---2/4---------4-2------4---4---4/7-------7--6--
D------------------------------------4/5-------------------------
A--5-------------------------------------------------------------
E----------------------------------------------------------------


E------------------5---------------2---------------------7-5--------
B--------5----5-------------3-3-----2-----------3-----------7---7--5
G----5/7---7----7-----2/4-4-----4----2------4-4---4---4/7-------7--6
D---------------------------------------4/5-------------------------
A--5----------------------------------------------------------------
E-------------------------------------------------------------------

E----------
B----7--7--
G----7--7--
D----7--7--
A----------
E----------

Manden sus comentarios a Neozamux@hotmail.com
Comments