Goldfinger - Stalker Chords & Tabs

 

Stalker Chords & Tabs

Goldfinger Chords & Tabs

Version: 1 Type: Tab 0 ratings
1 star 2 stars 3 stars 4 stars 5 stars
comments

Stalker Tab

   
Song- Stalker
Band- Goldfinger
Tabbed by - David Pearce

Ok, so im not saying this tab is perfect, but the intro and chorus sound right.
The verse is open to interpretation. This is an awesome song. Have fun

INTRO (guitar 2 plays the chorus 11 seconds in)
e-------------------|
B-------------------|
G-------------------|
D--5--5---5--3202---|
A-3-3---------------|
E----3-3-5-5--------|

VERSE- Still working on this, try putting the chorus into ska chords
and if it works then add to this tab. If you wanna just mess around then
play this with a ska feel and listen for the rhythem

e-------------|
B-------------|
G-5-----------|
D-5-5-7-5-3-5-|  Its not right but its fun to mess around with
A-3-5-7-5-3-5-|
E---3-5-3-1-3-|
[ Tab from: http://www.guitartabs.cc/tabs/g/goldfinger/stalker_tab.html ]
PRE CHORUS- this can be a little tricky to get the timing so i tabbed the changes
e--------------------------------------------------------|
B--------------------------------------------------------|
G--------------------------------------------------------|Hit these 4 chords sharp and fast
D--3---------------------7----3-----------------5-5-5-5--|
A--3---------------------7----3-----------------5-5-5-5--|
E--1---------------------5----1-----------------3-3-3-3--|
"outside my window she crept, watching my every step"

CHORUS
e---------|-----------------------|
B---------|-----------------------|
G-5-------|---------------------5-|
D-5-5-7-3-|-5-------------------5-|
A-3-5-7-3-|-5-------------------3-|
E---3-5-1-|-3---------------------|
	   "I wanna marry my stalker"

BRIDGE - The clean part just picking the chorus.
The "I almost gave up hope" part is below
e-------------|
B-------------|
G-5-----------|
D-5-5-7-5-3-5-|
A-3-5-7-5-3-5-|
E---3-5-3-1-3-|

THE FINAL CHORUS- play the normal chorus once, then this
e---------|-------------------------------------------------------------|
B---------|-------------------------------------------------------------|
G-7-------|-----------------------------------------------------------7-|
D-7-7-9-5-|-7---------------------------------------------------------7-|
A-5-7-9-5-|-7---------------------------------------------------------5-|
E---5-7-3-|-5-----------------------------------------------------------|
           "I wanna marry my, I wanna marry my, I wanna marry my stalker"

Then play the intro and your done

Cheers
David
Comments