Goldfinger - Spokesman Chords & Tabs

 

Spokesman Chords & Tabs

Goldfinger Chords & Tabs

Version: 3 Type: Tab 0 ratings
1 star 2 stars 3 stars 4 stars 5 stars
comments

Spokesman Tab

   
-----------------------------------------------------------------------------
			     spokesman - Goldfinger
-----------------------------------------------------------------------------
Tabbed by: blink1028x89
Email: sk8er1028@aol.com

Tuning: standard
intro
e|---------------------------------------------------------------------------
B|---------------------------------------------------------------------------
G|---------------------------------------------------------------------------
D|-4-4---4-4---4-4-4---4-----------------------------------------------------
A|-2-22--2-2---2-2-2---2-----------------------------------------------------
E|----0-0---0-0-----0-0------------------------------------------------------
verse: 2nd time palm mute and 3rd time palm mute.
e|---------------------------------------------------------------------------
B|---------------------------------------------------------------------------
G|---------------------------------------------------------------------------
D|-4----------------------------------6----------------9---4-----------------
A|-2222222222222222-4-----------------4444444444444444-7-4-2-----------------
E|------------------2222222222222222---------------------2-------------------
these next parts my guitar teacher tabbed out i dont what or when they come
in but im sure you can figure it out if you want to.
e|---------------------------------------------------------------------------
B|---------------------------------------------------------------------------
G|-6-------------------------------------------------------------------------
D|-7-------------------------------------------------------------------------
A|-7-------------------------------------------------------------------------
E|-5-------------------------------------------------------------------------
[ Tab from: http://www.guitartabs.cc/tabs/g/goldfinger/spokesman_tab_ver_3.html ]
e|---------------------------------------------------------------------------
B|---------------------------------------------------------------------------
G|---------------------------------------------------------------------------
D|-------7-7-4---------------------------------------------------------------
A|-5-7---5-4-2-5-7-----------------------------------------------------------
E|-3-5---------3-5-----------------------------------------------------------

e|---------------------------------------------------------------------------
B|---------------------------------------------------------------------------
G|---------------------------------------------------------------------------
D|-7-------------------------------------------------------------------------
A|-5-55555555----------------------------------------------------------------
E|---------------------------------------------------------------------------

e|---------------------------------------------------------------------------
B|---------------------------------------------------------------------------
G|---------------------------------------------------------------------------
D|---------------------------------------------------------------------------
A|-77777777------------------------------------------------------------------
E|-55555555------------------------------------------------------------------

this tab is right if u can figure out were the parts go and the beat and when
to palm mute but my guitar teacher is confusing sumtimes so when he tabbed those
parts he didnt tell what the hell they were (what parts they were). but its right
i did the intro and verse he did the rest.


| /  slide up
| \  slide down
| h  hammer-on
| p  pull-off
| ~  vibrato
| +  harmonic
| x  Mute note
===============================================================================
Comments