Goldfinger - Open Your Eyes Chords & Tabs

 

Open Your Eyes Chords & Tabs

Goldfinger Chords & Tabs

Version: 3 Type: Bass Tab 0 ratings
1 star 2 stars 3 stars 4 stars 5 stars
comments

Open Your Eyes Bass Tab

Artist: Goldfinger
Songname: Open your eyes

intro:

r - let note ring
m - mute note

This is the whole song. It's a good song, but not a hard bassline.
There are some slight rhythm variations here and there, but it's
pointless tabbing them out.

Intro/Chorus x2

G---------------------------------------
D---------------------------------------
A---------------------------5-5-5-5-5---
E-0-0-0---7-7-7-7---3-3-3---------------

Verse x4

G---------------------------------------
D---------------------------------------
A-7-7-7---------------------5-5-5-5-5---
E---------7-7-7-7---3-3-3---------------

Pre-Chorus x1

G---------------------------------------
D---------------------------------------
A-3r------------------------------------
E----------7r---------------------------

Intro/Chorus x4
[ Tab from: http://www.guitartabs.cc/tabs/g/goldfinger/open_your_eyes_btab_ver_3.html ]
G---------------------------------------
D---------------------------------------
A---------------------------5-5-5-5-5---
E-0-0-0---7-7-7-7---3-3-3--------------- 

Verse x4

Pre-Chorus x1

Intro/Chorus x4

Bridge x2

G---------------------------------------------------------------------
D---------------------------------------------------------------------
A-7-0-7-0-7-0-7-0-7-0-7-0-7-0-7-0---8-8-8-8-8-8-8-8-------------------
E-----------------------------------------------------8-8-8-8-8-8-8-8-

G---------------------------------------
D---------------------------------------
A---------------------------------------
E-0-0r---0-0m---------------------------

Intro/Chorus x6

Outro x1

G-----------------------------------------------
D-----------------------------------------------
A-7-0-7-0-7-0-7-0-7-0-7-0-7-0-7-0---8-8---8-8---
E-----------------------------------------------
Comments