Goldfinger - Open Your Eyes Chords & Tabs

 

Open Your Eyes Chords & Tabs

Goldfinger Chords & Tabs

Version: 1 Type: Bass Tab 0 ratings
1 star 2 stars 3 stars 4 stars 5 stars
comments

Open Your Eyes Bass Tab

   
Song: Open Your Eyes
Artist: Goldfinger
Album: Open Your Eyes
Tuning: Standard |E, A, D, G|

This is an awesome song and a funny song. Awesome because it is pure punk energy, funny because it’s about how eating meat is evil. 

Into Part 1
G|----------------------------- x2
D|---------------------0-0-0-0-
A|-------2-2-2-2---------------
E|-0-0-0---------3-3-3---------

Intro Part 2   (0:07)
G|-----------------------------
D|---------------------0-0-0-0- x2 With Heavy Distortion
A|---------2-2-2---------------
E|-0-0-0-0-------3-3-3---------

Verse   Open Your Eyes, To The Millions Of Lies....   (0:15)
G|----------------------------- x4
D|---------------------0-0-0-0-
A|-------2-2-2-2---------------
E|-0-0-0---------3-3-3---------

Chorus   How Do They Know...What’s Good For You   (0:29)
G|-------------------------------------------------
D|------------------------------------------------- Heavy Distortion
A|-3-3-3-3-3-3-3-3-3-3-3-3-2-2-2-2-2-2-2-2-2-2-2-2-
E|-------------------------------------------------

Chorus Cont’d   Wake Up! Wake Up!...A Shot To The Head...   (0:36)
G|-----------------------------
D|---------------------0-0-0-0- x4 With Heavy Distortion
A|---------2-2-2---------------
E|-0-0-0-0-------3-3-3---------
[ Tab from: http://www.guitartabs.cc/tabs/g/goldfinger/open_your_eyes_btab.html ]
Verse 2   Destroy All The Land...Sell You From Birth...   (0:51)
G|----------------------------- x4
D|---------------------0-0-0-0-
A|-------2-2-2-2---------------
E|-0-0-0---------3-3-3---------

Chorus 2   And How Do They Know...What’s Good For You   (1:05)
G|-------------------------------------------------
D|------------------------------------------------- Heavy Distortion
A|-3-3-3-3-3-3-3-3-3-3-3-3-2-2-2-2-2-2-2-2-2-2-2-2-
E|-------------------------------------------------

Chorus 2 cont’d   Wake Up! Wake Up!...A Shot To The Head...   (1:12)
G|-----------------------------
D|---------------------0-0-0-0- x4 With Heavy Distortion
A|---------2-2-2---------------
E|-0-0-0-0-------3-3-3---------

Bridge Part 1   Screaming   (1:27)
G|-------------------------------------------------\ I have no idea if
D|-2-2-2-2-2-2-2-2-2-2-2-2------------------------- \this is even close
A|-------------------------3-3-3-3-3-3-3-3-3-3-3-3- /If you know it plz
E|-------------------------------------------------/ let me know. Thnx


Bridge Part 2   Don’t Wanna Hate You...If You Don’t Look...   (1:42)
G|-----------------------------
D|---------------------0-0-0-0-
A|-------2-2-2-2---------------
E|-0-0-0---------3-3-3---------

Chorus 3   Wake Up! Wake Up!...A Shot To The Head...   (2:13)
G|-----------------------------
D|---------------------0-0-0-0- x4 With Heavy Distortion
A|---------2-2-2---------------
E|-0-0-0-0-------3-3-3---------

Outro   Open Your Eyes...Open Your Eyes   (2:27)
G|-----------------------------
D|---------------------0-0-0-0- x4 With Heavy Distortion
A|---------2-2-2---------------
E|-0-0-0-0-------3-3-3---------
Comments