Goldfinger - My Girlfriends Shower Sucks Chords & Tabs

 

My Girlfriends Shower Sucks Chords & Tabs

Goldfinger Chords & Tabs

Version: 2 Type: Tab 0 ratings
1 star 2 stars 3 stars 4 stars 5 stars
comments

My Girlfriends Shower Sucks Tab

Song: My Girlfriend's Shower Sucks
Album: Goldfinger
Band: Goldfinger

I heard their "Live At House Of Blues, The Show Must Go Off 2004" concert and i don't
know how it goes on the original version of this song...and i'm not exactly sure about
this tab, but it sounds good for me.


Lead Guitar:

Intro:

e|------------------------------|
B|------------------------------|
G|--------7/9-------------------|
D|-7/9~-------12~--9999999--9\~-|
A|------------------------------|
E|------------------------------|

Verse:

e|----------------------------------------------|
B|----------------------------------------------|
G|----------------------------------------------|
D|------11-----------7----------9---------------|
A|-99-9----9---5-5-5---5---77-7---7---4-4-4-2-4-|
E|----------------------------------------------|

e|----------------------------------------------|
B|----------------------------------------------|
G|----------------------------------------------|
D|------11-----------7--------------------------|
A|-99-9----9---5-5-5---5---/4~--2~--4~--7~------|
E|----------------------------------------------|

e|-----------------------------------------------|
B|-----------------------------------------------|
G|-----------------------------------------------|
D|------7----------9----------11-----------------|
A|-55-5---5---77-7---7---99-9----9---5-4-0-5-4-0-|
E|-----------------------------------------------|

e|-----------------------------------------------|
B|-----------------------------------------------|
G|-----------------------------------------------|
D|------7-----------9----------------------------|
A|-55-5---5---7-7-7---7---4~---------------------|
E|-----------------------------------------------|

Chorus:

D|-12121212--14-14-12-12--14141414--16-16-14-14--1616161616---14-12-14--16-14-12-14--|

D|-12121212--14-14-12-12--14141414--16-16-14-12--11~-12~-9~-12~----------------------|
[ Tab from: http://www.guitartabs.cc/tabs/g/goldfinger/my_girlfriends_shower_sucks_tab_ver_2.html ]
D|-12121212--14-14-12-12--14141414--16-16-14-14---1616161616---14-12-14--16-14-12-14-|

G|-12~---14~-------------------------------------------------------------------------|

Rhythm Guiar:

Intro:

e|-2-2-2-2-2-2-2-2--2-2-2-2-2-2-2-2-|
B|-3-3-3-3-3-3-3-3--3-3-3-3-3-3-3-3-|
G|-4-4-4-4-4-4-4-4--4-4-4-4-4-4-4-4-|
D|-2-2-2-2-2-2-2-2--2-2-2-2-2-2-2-2-|
A|-------------------------|--------|
E|-------------------------|lead-G.-|

Verse:

e|-2-2--3-3--5-5--2-2-|
B|-3-3--3-3--5-5--2-2-|
G|-4-4--4-4--6-6--3-3-|
D|-2-2--5-5--7-7--4-4-|
A|--------------------|
E|--------------------|

e|-2-2--3-3--5-5--5-5-|
B|-3-3--3-3--5-5--5-5-|
G|-4-4--4-4--6-6--6-6-|
D|-2-2--5-5--7-7--7-7-|
A|--------------------|
E|--------------------|

e|-3-3--5-5--7-7--7-7-|
B|-3-3--5-5--7-7--7-7-|
G|-4-4--6-6--7-7--7-7-|
D|-5-5--7-7--9-9--9-9-|
A|--------------------|
E|--------------------|

e|-3-3--5-5----------0-------|
B|-3-3--5-5------------0-----|
G|-4-4--6-6--------------3---|
D|-5-5--7-7------4---------4-|
A|-------------4---4---------|
E|-----------2---------------|

Chorus:

e|-3-3-3-3--5-5-5-5--7-7-7-7--7-7-7-7-|
B|-3-3-3-3--5-5-5-5--7-7-7-7--7-7-7-7-|
G|-4-4-4-4--6-6-6-6--7-7-7-7--7-7-7-7-|
D|-5-5-5-5--7-7-7-7--9-9-9-9--9-9-9-9-|
A|------------------------------------|
E|------------------------------------|

e|-3-3-3-3--5-5-5-5----------0--------|
B|-3-3-3-3--5-5-5-5------------0------|
G|-4-4-4-4--6-6-6-6--------------3----|
D|-5-5-5-5--7-7-7-7------4---------4--|
A|---------------------4---4----------|
E|-------------------2----------------|

e|-3-3-3-3--5-5-5-5--7-7-7-7--7-7-7-7-|
B|-3-3-3-3--5-5-5-5--7-7-7-7--7-7-7-7-|
G|-4-4-4-4--6-6-6-6--7-7-7-7--7-7-7-7-|
D|-5-5-5-5--7-7-7-7--9-9-9-9--9-9-9-9-|
A|------------------------------------|
E|------------------------------------|

e|-3~---5~------------0---------------|
B|-3~---5~--------------0-------------|
G|-4~---6~----------3-----3-----------|
D|-5~---7~--------4---------4--x3-----|
A|-5~---7~------4---------------------|
E|-3~---5~----2-----------------------|

Have Fun!!! 
Comments