Goldfinger - More Today Than Yesterday Chords & Tabs

 

More Today Than Yesterday Chords & Tabs

Goldfinger Chords & Tabs

Version: 1 Type: Tab 0 ratings
1 star 2 stars 3 stars 4 stars 5 stars
comments

More Today Than Yesterday Tab

   
Intro/Verse
e---5-------------3-----3--------------------------------|
B---5-------------5-----4--------------------------------|
G---6-------------5-or--5--------------------------------|
D---7--------and--5-----5--------------------------------| (raggaeish thing)
A---7-------------3-----3--------------------------------|
E---5-------------3-----3--------------------------------|

Main Riff:
e-----------------------------------------------------|
B-----------------------------------------------------|
G-----------------------------------------------------|
D---10--8-8-8-10--8-11---14-13-12-10-8-10-------------|then repeat nalang
A-----------------------------------------------------|
E-----------------------------------------------------|
[ Tab from: http://www.guitartabs.cc/tabs/g/goldfinger/more_today_than_yesterday_tab.html ]
Chorus:
e-----------------------------------------------------|
B-----------------------------------------------------|
G-----------------5555555555--------------------------|
D---7777777777----5555555555--------------------------|
A---7777777777----3333333333--------------------------|
E---5555555555----------------------------------------|
        A             C
or
e-----------------------------------------------------|
B-----------------------------------------------------|
G-33333333-----55555555-------------------------------| 'A'can also be Bb
D-33333333-----55555555-------------------------------|
A-11111111-----33333333-------------------------------|
E-----------------------------------------------------|

Brige/Outro
e-----------------------------------------------------|
B-----------------------------------------------------|
G-----------------5555555555--------------------------|
D---7777777777----5555555555--------------------------|
A---7777777777----3333333333--------------------------|
E---5555555555----------------------------------------|
        A             C
or
e-----------------------------------------------------|
B-----------------------------------------------------|
G-33333333-----55555555-------------------------------| 'A'can also be Bb
D-33333333-----55555555-------------------------------|
A-11111111-----33333333-------------------------------|
E-----------------------------------------------------|

yung lead tsaka na yun haha.
questions? raffy_skate@yahoo.com
or look for me ni friendster nhaha
Tabbed by Raffy Ronquillo
14/05/04
Comments