Goldfinger - Minds Eye Chords & Tabs

 

Minds Eye Chords & Tabs

Goldfinger Chords & Tabs

Version: 2 Type: Bass Tab 0 ratings
1 star 2 stars 3 stars 4 stars 5 stars
comments

Minds Eye Bass Tab

Goldfinger
Minds Eye




Intro: 
G-------------------------------- 
D-------------------------------- 
A--5-5-5-5-5-5-5-5-5-5-5-5-5-5-5- 
E-------------------------------- 

Verse: Play twice. 
G-------------------------------------------- 
D-------------------------------------------- 
A-----------7-7-7-7-----------7-7-7-7-------- 
E--7-7-7-7-----------7-7-7-7----------5-5-5-- 
[ Tab from: http://www.guitartabs.cc/tabs/g/goldfinger/minds_eye_btab_ver_2.html ]
Chorus: 
G----------------------------------------------------------------- 
D----------------------------------------------------------------- 
A------------------------5-5-5-5-5-------------------------------- 
E--5-5-5-5-5--3-3-3-3-3-------------5-5-5-5-5--3-3-3-3-3--0-0-0-0- 

Bridge: 
G-------------------------------------------- 
D-------------------------------------------- 
A---------5--------------------5------------- 
E--2-2-2-----5-5-5-0-5--2-2-2-----5-5-5------ 


tabbed by matt kessler
Comments