Goldfinger - Miles Away Chords & Tabs

 

Miles Away Chords & Tabs

Goldfinger Chords & Tabs

Version: 1 Type: Bass Tab 0 ratings
1 star 2 stars 3 stars 4 stars 5 stars
comments

Miles Away Bass Tab

   
Song: Miles Away
Artist: Goldfinger
Album: Goldfinger
Tabbed By: Ba$$ Lizard
*Member Of The Bass Tab Archive Tabbing Army*

This is an easy song.  It's all 16th notes played very fast, so I 
recommend up and down strokes.

Intro/Verse 

                                                        
G:----------------------------------------------------------------
D:----------------------------------------------------------------
A:----------------------------------------------------------------
E:-7-7-7-7-7-7-7-7-7-7-7-7-7-7-7-7-0-0-0-0-0-0-0-0-0-0-0-0-0-0-0-0

G:----------------------------------------------------------------
D:----------------------------------------------------------------
A:----------------------------------------------------------------
E:-2-2-2-2-2-2-2-2-2-2-2-2-2-2-2-2-7-7-7-7-7-7-7-7-7-7-7-7-7-7-7-7 
Play 2X, then

Chorus
[ Tab from: http://www.guitartabs.cc/tabs/g/goldfinger/miles_away_btab.html ]
G:----------------------------------------------------------------
D:----------------------------------------------------------------
A:---------------------------------4-4-4-4-4-4-4-4-4-4-4-4-4-4-4-4
E:-7-7-7-7-7-7-7-7-7-7-7-7-7-7-7-7--------------------------------

G:----------------------------------------------------------------
D:----------------------------------------------------------------
A:-7-7-7-7-7-7-7-7-7-7-7-7-7-7-7-7--------------------------------
E:---------------------------------7-7-7-7-7-7-7-7-7-7-7-7-7-7-7-7 
Play 1X, then


Play Verse 3X
Play Chorus 2X
He says "Let's Go!"
Play Chorus 2X, then

Outro

G:----------------------------------------------------------------
D:----------------------------------------------------------------
A:---------------------------------4-4-4-4-4-4-4-4-4-4-4-4-4-4-4-4
E:-7-7-7-7-7-7-7-7-7-7-7-7-7-7-7-7--------------------------------

G:--------------------------------
D:--------------------------------  "Yeah, Miles Away!"
A:-7-7-7-7-7-7-7-7-7-7-7-7-7-7-7-7
E:-------------------------------- Play 1X

That's it! You may have noticed the song was in the key of D, for
people that really care about that stuff.

Comments