Goldfinger - Just Like Heaven Chords & Tabs

 

Just Like Heaven Chords & Tabs

Goldfinger Chords & Tabs

Version: 1 Type: Tab 0 ratings
1 star 2 stars 3 stars 4 stars 5 stars
comments

Just Like Heaven Tab

Just Like Heaven - By Goldfinger (Cure cover)
Tabbed by Alec LaLonde  
http://www.angelfire.com/ny4/cela
Tabbed with a broken e-string :(

Listen to the song for the rhythms...

Intro - 4x
e---------------------
B---------------------
G---------4---7-------
D-7---2---4---7-------
A-7---2---2---5-------
E-5---0---------------

Solo 1 (with wah) - 2x

B------------------------------------
G--/14-13-11-13-11-9-7-7-7h9---------
D----------------------------11-9-7--
A------------------------------------

Guitar 1 plays intro 4x
Guitar 2 plays riff 1.5x
e----------------------------------2-2-
B---on the offbeats------------3-3-----
G---2-2--2-2----------4-4--4-4---------
D------------2-2--2-2------------------
A--------------------------------------
E--------------------------------------
[ Tab from: http://www.guitartabs.cc/tabs/g/goldfinger/just_like_heaven_tab.html ]
Chorus
e---------------------
B--3x------and then --
G-------------7-------
D-4--5--------7-------
A-4--5--------5-------
E-2--3----------------

Solo 2 (wah again)
e--------------------------------------------------
B---repeat----------------------------14-12-14-15v-
G---first solo-----/14-13-14-16-14-16--------------
D---once then--------------------------------------
A--------------------------------------------------

e-12-12-12-----------14-14-14---------------------------------
B----------12p10h12v----------15p14h15v-----14h15p14-14h17p14-
G---------------------------------------------------/\--------
D------------------------------------------this part about 6x-

e--------------------
B-15-14h15p14-12-----
G----------------14v-
D--------------------

drum n bass for 1.5 times or so
then
e----
B----
G-7--     then the intro twice
D-7--
A-5--
E----

then the interlude 3x
end on
e----
B----
G-7--     
D-7--
A-5--
E----
Comments