Goldfinger - Im Down Chords & Tabs

 

Im Down Chords & Tabs

Goldfinger Chords & Tabs

Version: 1 Type: Bass Tab 0 ratings
1 star 2 stars 3 stars 4 stars 5 stars
comments

Im Down Bass Tab

   
Song: I?m down
 Band: Goldfinger
 Album:
 Tabbed by: Chris (KurtWuchtig@gmx.de)

RIFF #1
G:--------------------------------------------|
D:--------------------------------------------|
A:------5555-7777-3333------------------------|
E:-3333---------------------------------------|

RIFF #2 (And I?m down...)
G:--------------------------------------------|
D:--------------------------------------------|
A:-0----3----0----3---------------------------|
E:--------------------------------------------|

RIFF #3
C:-----------------------------------------------------|
D:-----------------------------------------------------|
A:-0----3----0----3------------------------------------|
E:---------------------1----1----3----1----0----1----0-|
[ Tab from: http://www.guitartabs.cc/tabs/g/goldfinger/im_down_btab.html ]
RIFF #4
C:--------------------------------------------|
D:--------------------------------------------|
A:-0000-----------5555------------------------|
E:------0000-2222-----------------------------|

RIFF #5
C:--------------------------------------------|
D:--------------------------------------------|
A:-2----5----2----5---------------------------|
E:--------------------------------------------|

"RIFF #6"
C:----------|
D:----------|
A:----------|
E:-33333333-

*ORDER*

Just guitar
When the drums start, you can play RIFF:#6 (8x)
RIFF:#1  4x
RIFF:#2  1x
RIFF:#1  4x
RIFF:#3  1x
RIFF:#4  2x (the first time you don?t play the "A" (just singing), you start with the "E")
RIFF:#5  2x
RIFF:#4  1x (the song ends with a "A")

I don?t know if this is really right, but I played it so with my band and it works.
Comments