Goldfinger - Here In Your Bedroom Chords & Tabs

 

Here In Your Bedroom Chords & Tabs

Goldfinger Chords & Tabs

Version: 1 Type: Tab 0 ratings
1 star 2 stars 3 stars 4 stars 5 stars
comments

Here In Your Bedroom Tab

   
#-----------------------------PLEASE NOTE-------------------------------------#
#This OLGA file is the author's own work and represents their interpretation  #
#of the song. You may only use this file for private study, scholarship, or   #
#research. Remember to view this file in Courier, or some other monospaced    #
#font. See http://www.olga.net/faq/ for more information.                     #
#-----------------------------------------------------------------------------#

Date: Mon, 7 Oct 1996 20:15:32 -0500 (CDT)
From: eiko ogata 
Subject: g/goldfinger/here_in_your_bedroom.tab

Song: "Here in Your Bedroom"
Band: Goldfinger
Album: Goldfinger
transcribed by: Eiko Ogata (eogata@keller.clarke.edu)

I play Green Day's stuff most of the time, so my guitar has been tuned 1/2
step down.  I could've fix the tune, but I didn't, so try this one with
your guitar 1/2 step down.  It has been only a year and half since I
started playing guitar, so this may not be perfectly right, but I think
this one sounds O.K., so if you have any comments, send me E-mail to
eogata@keller.clarke.edu.

Guitar tune down 1/2 step
G#5(466xxx) C#5(x466xx) B5(x244xx) F#5(244xxx) F5(x81010xx)
C5(81010xx) D#5(x688xx) A#5(688xxx) F5(133xxx)

(Bass and Drums)
Here in your bedroom...

-----------------------------------------------
-----------------------------------------------
-----------------------------------------------
-----------------------------------------------
-8--8--8--8--6--6--6--6--6--6--6--6--4--4--4--4
-----------------------------------------------
I wonder what you think...

-----------------------------------------------
-----------------------------------------------
-----------------------------------------------
-----------------------------------------------
-3--3--3--3--4--4--4--4--6--6--6--6--8--8--8--8
-----------------------------------------------
When I wake up tommorow...

G#5
Will you have changed...

Chorus:

                 C#5 G#5
'Cuz I still feel...
B5 F#5
C#5 G#5 B#5 F#5

F5(x81010xx) C5
Here in your bedroom...
D#5 A#5
F5(x81010xx) C5
D#5 A#5
C#5 G#5
B5 F#5
C#5 G#5
B5 F#5

***
C#5            G#5 
When I wake up tommorow...
B5 F#5
C#5 G#5
B5 F#5

(Chorus)

(Bridge/Solo)
-------------------------------------------------------------------------
-------------------------------------------------------------------------
-------------------------------------------------------------------------
----3-4-3-------------1-2-1-------------3-4-3--------------1-2-1---------
-4-4-------3-4-6--2-2---------------4-4---------3-4-6--2-2---------------
---------4-----------------2-2-2-2------------4------------------2-2-2-2-
[ Tab from: http://www.guitartabs.cc/tabs/g/goldfinger/here_in_your_bedroom_tab.html ]
------------------------------------------------
------------------------------------------------
------------------------------------------------
------------------------------------------------
-8--8--8--8--------------6--6--6--6-------------
-------------8--8--8--8--------------6--6--6--6-
Here in your bedroom...

C#5               G#5
I wonder what you think...
B5 F#5
C#5 G#5
B5 F#5

(***Repeat)
(Chorus)


C#5 G#5  B5           F#5
I,       I still feel...
C#5 G#5 B5 F#5

   (Solo/Outro)
---------------------------------------------------------------------------
---------------------------------------------------------------------------
---------------------------------------------------------------------------
-----3-4-3--------------1-2-1--------------3-4-3-------------1-2-1---------
-4-4---------3-4-6--2-2---------1-2-4--4-4--------3-4-6--2-2---------1-2-4-
-----------4------------------2------------------4-----------------2-------

----------------I
----------------I
----------6-6---I
----------6-6---I
-4--6--8--4-4---I
----------------I


Date: Sun, 19 Jan 1997 17:09:52 -0600
From: Bob Macauley 

                              Here in Your Bedroom
                             **********************
Band:goldfinger
tabbed by:Charlie Lutman/Mike Macauley


intro riff: play 2x
e-----------------------------------------------------------------------
B-----------------------------------------------------------------------
G-----------------------------------------------------------------------
D------6-6-7-9--------------------4-4-5-7--------------------2-2-3-5-3-2
A-7-7-7------------6-6-7-6---5-5-5------------4-4-5-4---3-3-3-----------
E-------------7-7-7----------------------5-5-5--------------------------

e-----------------------------------------------------------------------
B-----------------------------------------------------------------------
G-----------------------------------------------------------------------
D------0-0-1-3----------------------------------------------------------
A-1-1-1--------------0-0-1-0--------------------------------------------
E---------------1-1-1---------------------------------------------------

Verses: play each riff 2x
riff 1
e---------------------------------------------
B---------------------------------------------
G-5-5-5-5------------3-3-3-3------------------
D-5-5-5-5---5-5-5-5--3-3-3-3--3-3-3-3---------
A-3-3-3-3---5-5-5-5--1-1-1-1--3-3-3-3---------
E---------0-3-3-3-3---------0-1-1-1-1---------

riff 2:
e-----------------------------------------------------------------
B-----------------------------------------------------------------
G-9-9-9-9-9-9-9-------------------7-7-7-7-7-7-7-------------------
D-9-9-9-9-9-9-9-x-9-9-9-9-9-9-9---7-7-7-7-7-7-7-x-7-7-7-7-7-7-7---
A-7-7-7-7-7-7-7-x-9-9-9-9-9-9-9-x-5-5-5-5-5-5-5-x-7-7-7-7-7-7-7---
E-----------------7-7-7-7-7-7-7-x-----------------5-5-5-5-5-5-5---

play riff 2 6x for each chord except on last chord play 2wice, then go 
back to riff 1.

Comments