Goldfinger - Fuck You And Your Cat Chords & Tabs

 

Fuck You And Your Cat Chords & Tabs

Goldfinger Chords & Tabs

Version: 1 Type: Bass Tab 0 ratings
1 star 2 stars 3 stars 4 stars 5 stars
comments

Fuck You And Your Cat Bass Tab

First part
e|---------------------------------------------------------
a|------------------7---5----------------------------------
d|------10/---3------------5------------00---22------------
g|-------------------------------5---3---------------------
Second part intro
e|---------------------------------------------------------
a|--------------------------------------------------------- play once then:
d|-----3/----5-5-5-1-1-1-3-3-3-----------------------------
g|-----------------------------------3-3-3-----------------
[ Tab from: http://www.guitartabs.cc/tabs/g/goldfinger/fuck_you_and_your_cat_btab.html ]
e|---------------------------------------------------------
a|--------------------------------------------------------- repeat
d|------------5-5-5-1-1-1-3-3-3----------------------------
g|------------------------------------3-3-3----------------
Then
e|---------------------------------------------------------
a|-------------------3-2-0-----------------------5-3-2-----
d|-11111111----------------3------33333333-----------------
g|---------------------------------------------------------

e|---------------------------------------------------------
a|---------------------------------------------------------
d|----3--------3--3---333----------------------------------
g|---------------------------------------------------------

This is my first tab so be gentle YA VULTURES!
By the john meistrobe.
Comments