Goldfinger - Faith Chords & Tabs

 

Faith Chords & Tabs

Goldfinger Chords & Tabs

Version: 1 Type: Bass Tab 0 ratings
1 star 2 stars 3 stars 4 stars 5 stars
comments

Faith Bass Tab

Artist: Goldfinger
Song: Faith
Album: Disconnection notice


This song gets me everytime!

intro x2
G\----------------------------------------------------|
D\----------------------------------------------------|
A\-0--0-0--0-0-4--4-4--4-4-0--------------------------|
E\------------4-------------2--2-2--2-2-4-0--0-0--0-0-|

Verse - same az the intro. play the verse four times
The fourth time play this

G\----------------------------------------------------|
D\----------------------------------------------------|
A\-0--0-0--0-0-4--4-4--4-4-0--------------------------|
E\------------4-------------2--2-2--2-2-4--0(x16)-----|

Chorus is same as the intro. play the chorus twice

The slow part after the chorus:
G\-----------------------------|
D\-----------------------------|
A\--5(x16)--2/4--(let ring)----|
E\-----------------------------|
[ Tab from: http://www.guitartabs.cc/tabs/g/goldfinger/faith_btab.html ]
Second Verse is the same as the first one, again, you play it four times, but on this 
the fourth time is played like so:
G\-------------------------------------------------|
D\-------------------------------------------------|
A\-0000000-4444444-0-------------------------------|
E\--------4---------22222224000000000000000--------|

The second chorus is twice as long, that means you play the second chorus four times, 
time is like so:

G\-----------------------------------------------------|
D\-----------------------------------------------------|
A\-0--0-0--0-0-4--4-4--4-4-0---------------------------|
E\------------4-------------2--2-2--2-2-4-0(16x)-------|

 again it's the slow part after the chorus

G\---------------------------|
D\---------------------------|
A\--5(x16)--2/4--(let ring)--|
E\---------------------------|

That's the song :) I'm sure it's 100% correct ... well if it isn't...I'm just a human 
;D If you follow the song , you'll find that its progression is exactly as I tabbed it:) 
Fun!
Comments