Goldfinger - Bro Chords & Tabs

 

Bro Chords & Tabs

Goldfinger Chords & Tabs

Version: 1 Type: Tab 0 ratings
1 star 2 stars 3 stars 4 stars 5 stars
comments

Bro Tab

name: Dominic Martinez

artist: Goldfinger

SongTitle: Bro

Tabs: pick strokes are up to you to figure out
just an interpretation, nothing more

intro
E-----------------
B-----------------
G-----------------
D-----------------
A-----------------
E---3--5--8--7----
   (PALM MUTE)

chorus
E-----------------
B-----------------
G-----------------
D--7--5--10--9----
A--7--5--10--9----
E--5--3--8---7----
  (distorted)

 verse 1 (very hard to tell...too much distortion)
E----------------------
B----------------------
G----------------------
D---7--9--5--7/9--7/9--
A---7--9--5--7-9--7/9--
E---5--7--3--5/7--5/7--

bridge
E-------10--8h10p8h10p8/6---11--9--7-
B--/10-------------------------------
G--/10-------------------------------
D------------------------------------
A------------------------------------
E------------------------------------

verse 2
E---5--5-----5--7----------
B---6--5-----6--5----------
G---7--7-----7--7----------
D---7--7-----7--7----7-6---
A---5--5-----5--5----7-6---
E---5--5-----5--5----5-4---
  (ska strokes)     (distorted)

E--5--5----5--5--6--5
B--6--5----6--5--7--6
G--7--7----7--7--8--7
D--7--7----7--7--8--7
A--5--5----5--5--6--5
E--5--5----5--5--6--5
(ska strokes)
[ Tab from: http://www.guitartabs.cc/tabs/g/goldfinger/bro_tab.html ]
Fill 1
E-11/12--9---5--5
B------------5--6
G------------7--7
D------------7--7
A------------5--5
E------------5--5
            (alternates)

Verse/Song Structure
(INTRO)
(Chorus)
You're not my bro, don't say it
don't you pretend that 
you're my bro, don't say it
don't you pretend that 
you're my bro

(verse 1)
you think you're my friend 
yet you just take from me
so now is the end so 
don't fucking smile
just get the fuck away from me

(chorus)
You're not my bro, don't say it
don't you pretend that 
you're my bro, don't say it
don't you pretend that 
you're not my bro

(verse 1)
you use your fake friends
you use them and throw them away
so now is the end so
don't fucking smile
just get the fuck away from me
get the fuck away

(chorus)
You're not my bro, don't say it
don't you pretend that 
you're my bro, don't say it
don't you pretend that 
you're not my bro

(Bridge)
(verse2)
now you have forsaken
all that i have known
now you've really taken me
for everything i own

when i want it back 
i doubt you'll ever see
it's you that has to pay the price
and me who is set free
you're not my bro
(riff 1)

(chorus)
You're not my bro, don't say it
don't you pretend that 
you're my bro, don't say it
don't you pretend that 
you're not my bro

Comments