Goldfinger - 99 Red Balloons Chords & Tabs

 

99 Red Balloons Chords & Tabs

Goldfinger Chords & Tabs

Version: 7 Type: Tab 0 ratings
1 star 2 stars 3 stars 4 stars 5 stars
comments

99 Red Balloons Tab

   
Intro (clean guitar)

   E     F#m     A      B
e---------2------5------7---------
B---------2------5------7---------
G--1------2------6------8---------
D--2------4------7------9---------
A--2------4------7------9---------
E---------2------5------7---------


Verse 1
The chords on the verse 1 are the same as the intro, played four times,
except that in the two first rounds it's palm muted.

w/distorsion

Riff 1
e----------------------------
B----------------------------
G--9-9-9-6-9-9-9-6-9-9-6-9-9-   (4x)
D----------------------------
A----------------------------
E----------------------------


Riff 2
e--------------------------------------        -------------
B--------------------------------------        -------------
G--------------------------------------  (2x)  -4-4-4-4-4-4-
D--2-2---2-----------2-2---2-----------        -4-4-4-4-4-4-
A------4---4-------------4---4-2-2-2-4-        -2-2-2-2-2-2-
E------------2-4-2-0-------------------        -------------


The whole riff 2 repits two times.

Chorus: E  F#m  A  B  (4x)

[ Tab from: http://www.guitartabs.cc/tabs/g/goldfinger/99_red_balloons_tab_ver_7.html ]
Riff 3
e-2-4-0-4-2-0---4-2-0-0---0---0-2---2-4-0-4-2-0---4-2-0-0---7-4-2-4--
B-------------2---------2---2-------------------2---------2----------
G--------------------------------------------------------------------
D--------------------------------------------------------------------
A--------------------------------------------------------------------
E--------------------------------------------------------------------


Verse 2
It's the same that verse 1

Riff 4 (this is the continue of the riff 3, and here the riff 3 ends
on 2nd fret instead 4th)

e-5-7-7-7-7-5-5-5-5-       -7-7-4-7-7-4-7-4---        ----------------
B-------------------       -------------------        -0-0-0-0-2-4\0--
G-------------------  (4x) -------------------  (3x)  ----------------
D-------------------       -------------------        ----------------
A-------------------       -------------------        ----------------
E-------------------       -------------------        ----------------


w/clean guitar

Outro: E  F#m  A  B  (4x)



Intro
Verse 1
Riff 1
Riff 2
Chorus
Chorus - Riff 3
Verse 2
Riff 1
Riff 2
Chorus
Riff 3 - Riff 4
Outro
Comments