Goldfinger - 99 Red Balloons Chords & Tabs

 

99 Red Balloons Chords & Tabs

Goldfinger Chords & Tabs

Version: 4 Type: Bass Tab 0 ratings
1 star 2 stars 3 stars 4 stars 5 stars
comments

99 Red Balloons Bass Tab

   
Tabbed by "Adam Amann"

(Also play this during the very begining)Verses:
E------------------------------------
A------------------------------------
D-------------------00000000-22222222
G-00000000-22222222------------------

E------
A------
D----99(pluck the ninth fret twice on the fourth beat)
G-o----(let this note ring throughout the mesure)
       Repeat this  2x^

     Refrain:
E------------------------------
A---------4-h6-p0--------------
D-77-4-7-4-------7-77-4-7-4---4
G-----------------4--------777-
[ Tab from: http://www.guitartabs.cc/tabs/g/goldfinger/99_red_balloons_btab_ver_4.html ]
E-------------------------------------------
A---------4-h6-p0---------------------------
D-77-4-7-4-------7-4-77-4-7-4--------4-7-4-7
G----------------7-----------000000-0-------

E--------------------------------------------------------------
A-4-h6-p0---------------------------4-h6-p0--------------------
D--------7-4-77-4-7-4---4---77-4-7-4-------7-7-4-77-4-7-4------
G---------7----------000--------------------7------------000000

     (right before the germanEnd:
E-2-4-0-4-2-0-4-2-00-0-2
A------------2------2-2-
D-----------------------
G-----------------------

E-2-4-0-4-2-0-4-2-00-7-4-2-4
A------------2------2-------
D---------------------------
G---------------------------
Comments