Goldfinger - 99 Red Ballons Chords & Tabs

 

99 Red Ballons Chords & Tabs

Goldfinger Chords & Tabs

Version: 2 Type: Tab 1 rating
1 star 2 stars 3 stars 4 stars 5 stars
comments

99 Red Ballons Tab

   
song: 99 red balloons
band: Goldfigner
Cd: Stomping Ground
tabbed by:Scott

Clean
    E   F#  A   B
|---0---2---5---7-----------------------------------------|
|---0---2---5---7-----------------------------------------|
|---1---2---6---8-----------------------------------------|
|---2---4---7---9-----------------------------------------|X1
|---2---4---7---9-----------------------------------------|
|---0---2---5---7-----------------------------------------|

|---------------------------------------------------------|
|---------------------------------------------------------|
|---X8---X8----X8----X8-----------------------------------|
|--2-----4-----7-----9------------------------------------|X2
|--2-----4-----7-----9------------------------------------|the second time let up
|--0-----2-----5-----7------------------------------------|on the palm muting at 
  PM---------------------     end of the last chord 
     then go

    X4  X4 X4  X4
|--0---2---5---7------------------------------------------|
|--0---2---5---7------------------------------------------|   this is played while the 
|--1---2---6---8------------------------------------------|  last verse(the palm muting) 
|--2---4---7---9------------------------------------------|X2 is played under it by another 
|--2---4---7---9------------------------------------------|  guitar(you dont need to though 
|--0---2---5---7------------------------------------------|   cause Goldfinger only has 1 guitarist)

|---------------------------------------------------------|
|--5-x-x-5-5-x-5-5-5-5-5----------------------------------|  If you dont like playing that 
|--x-x-x-x-x-x-x-x-x-x-x----------------------------------|   there play it at the 7th fret 
|--2-x-x-2-2-x-2-2-2-2-2----------------------------------|X4 on the A string
|---------------------------------------------------------|
|---------------------------------------------------------|
heavy distortion
|---------------------------------------------------------|
|---------------------------------------------------------|
|---------------------------------------------------------|
|---2-2---2---4h6p4\2--2-2---2---2-2-2--------------------|
|-------4---4--------------4---4-2-2-2h4------------------|
|---------------------------------------------------------|
|    |
|---------------------------------------------------------|X2 except the end is different 
|---------------------------------------------------------|   2nd time
|---------------------------------------------------------|
|---2-2---2---4h6p4\2--2-2---2----2-----2-----------------|
|-------4---4--------------4---4--2-----2-----------------|
|---------------------------------0-0-0-0-0-0-------------|
    heavy PM
|---------------------------------------------------------|
|---------------------------------------------------------|2nd ending
|---------------------------------------------------------|
|---2-2---2---4h6p4\2--2-2---2----2-2-2-2-2-2-2-2---------|
|-------4---4--------------4---4--2-2-2-2-2-2-2-2---------|
|---------------------------------0-0-0-0-0-0-0-0---------|
    PM        let off PM
distortion
|---------------------------------------------------------|
|---------------------------------------------------------|
|---X6--X6--X6--X6----------------------------------------|
|--2---4---7---9------------------------------------------|X2
|--2---4---7---9------------------------------------------|
|--0---2---5---7------------------------------------------|

|---------------------------------------------------------|
|---------------------------------------------------------|
|---------------------------------------------------------|X1
|--2-2-2-2---4-4-4-4---7-7-7-7---9-9-9-9------------------|hit the chord then let up
|--2-2-2-2---4-4-4-4---7-7-7-7---9-9-9-9------------------|on your hand, for each stroke
|--0-0-0-0---2-2-2-2---5-5-5-5---7-7-7-7------------------|

|---------------------------------------------------------|
|---------------------------------------------------------|
|---X6--X6--X6--X6----------------------------------------|X1
|--2---4---7---9------------------------------------------|
|--2---4---7---9------------------------------------------|
|--0---2---5---7------------------------------------------|
SOLO(i know its not completely right but hopefully someone 
     will send me the corrections)
distortion
|---------------------------------------------------------|
|------9---9----------9----------9------------------------|
|--/11---9---11--9------11--9\6----9----9--11-------------|
|------------------11----------------11-------------------|
|---------------------------------------------------------|
|---------------------------------------------------------|
[ Tab from: http://www.guitartabs.cc/tabs/g/goldfinger/99_red_ballons_tab_ver_2.html ]
|---------------------------------------------------------|
|------9---9----------9----------9--12--9----9------------|
|--/11---9---11--9------11--9\6-----------11--------------|
|------------------11-------------------------------------|
|---------------------------------------------------------|
|---------------------------------------------------------|
distortion
|---------------------------------------------------------|
|---------------------------------------------------------|
|---X8--X8--X8--X8----------------------------------------|X2 at the last chord
|--2---4---7---9------------------------------------------|   let up on PM
|--2---4---7---9------------------------------------------|
|--0---2---5---7------------------------------------------|  
PM---------------
distortion
|---------------------------------------------------------|
|---------------------------------------------------------|
|---------------------------------------------------------|
|--22-44-77-99999999--------------------------------------|
|--22-44-77-99999999--------------------------------------|
|--00-22-55-77777777--------------------------------------|

|---------------------------------------------------------|
|---------------------------------------------------------|
|---------------------------------------------------------|X1
|--2-2-2-2---4-4-4-4---7-7-7-7---9-9-9-9-9----------------|ska style hit it
|--2-2-2-2---4-4-4-4---7-7-7-7---9-9-9-9-9----------------|
|--0-0-0-0---2-2-2-2---5-5-5-5---7-7-7-7-7----------------|
     

|---------------------------------------------------------|
|--5-x-x-5-5-x-5-5-5-5-5-----this is played under---------| 
|--x-x-x-x-x-x-x-x-x-x-x----------------------------------|   
|--2-x-x-2-2-x-2-2-2-2-2-----2-2---2---2-2---2------------|X4 
|--------------------------------4---4-----4---4\---------|
|---------------------------------------------------------|

heavy distortion
|---------------------------------------------------------|
|---------------------------------------------------------|
|---------------------------------------------------------|
|---2-2---2---4h6p4\2--2-2---2---2-2-2--------------------|
|-------4---4--------------4---4-2-2-2h4------------------|
|---------------------------------------------------------|
|    |
|---------------------------------------------------------|X2 except 
the end is different 
|---------------------------------------------------------|   2nd time
|---------------------------------------------------------|
|---2-2---2---4h6p4\2--2-2---2----2-----2-----------------|
|-------4---4--------------4---4--2-----2-----------------|
|---------------------------------0-0-0-0-0-0-------------|
    heavy PM
|---------------------------------------------------------|
|---------------------------------------------------------|2nd ending
|---------------------------------------------------------|
|---2-2---2---4h6p4\2--2-2---2----2-2-2-2-2-2-2-2---------|
|-------4---4--------------4---4--2-2-2-2-2-2-2-2---------|
|---------------------------------0-0-0-0-0-0-0-0---------|
    PM        let off PM
distortion
|---------------------------------------------------------|
|---------------------------------------------------------|
|---X6--X6--X6--X6----------------------------------------|
|--2---4---7---9------------------------------------------|X3
|--2---4---7---9------------------------------------------|
|--0---2---5---7------------------------------------------|

|---------------------------------------------------------|
|---------------------------------------------------------|
|---------------------------------------------------------|X1
|--2-2-2-2---4-4-4-4---7-7-7-7---9-9-9-9-9-9--------------|hit the chord then let up
|--2-2-2-2---4-4-4-4---7-7-7-7---9-9-9-9-9-9--------------|on your hand, for each stroke
|--0-0-0-0---2-2-2-2---5-5-5-5---7-7-7-7-7-7--------------|

SOLO(i know its not completely right but hopefully someone 
     will send me the corrections)
distortion
|---------------------------------------------------------|
|------9---9----------9----------9------------------------|
|--/11---9---11--9------11--9\6----9----9--11-------------|
|------------------11----------------11-------------------|
|---------------------------------------------------------|
|---------------------------------------------------------|

|---------------------------------------------------------|
|------9---9----------9----------9--12--9----9------------|
|--/11---9---11--9------11--9\6-----------11--------------|
|------------------11-------------------------------------|
|---------------------------------------------------------|
|---------------------------------------------------------|

|---------------------------------------------------------|
|---------------------X4------12-12-9-12-12p9-9-9-12-12---|
|--9/11-11-11-11\9-9-9------------------------------------|
|---------------------------------------------------------|
|---------------------------------------------------------|
|---------------------------------------------------------|

|---------------------------------------------------------|
|--9-12-12p9-9-9-12p9-12-12-9-12-12p9-9-9\----------------|
|-------------------------------------------9999/11-------|
|-------------------------------------------9999/11--2----|
|-------------------------------------------7777/9---2----|
|----------------------------------------------------0----|

Clean
    E   F#  A   B
|---0---2---5---7-----------------------------------------|
|---0---2---5---7-----------------------------------------|
|---1---2---6---8-----------------------------------------|
|---2---4---7---9-----------------------------------------|X4
|---2---4---7---9-----------------------------------------|
|---0---2---5---7-----------------------------------------|
Comments