Golden Earring - Pouring My Heart Out Again Chords & Tabs

 

Pouring My Heart Out Again Chords & Tabs

Golden Earring Chords & Tabs

Version: 1 Type: Tab 0 ratings
1 star 2 stars 3 stars 4 stars 5 stars
comments

Pouring My Heart Out Again Tab

   
Golden Earring Pouring My Heart Out Again	
Album:	The Naked Truth
Authors:	George Kooymans
----------------------------------------------------------------------------------
Tabbed by:	Puddler
		
----------------------------------------------------------------------------------
Pouring My Heart Out Again	-	The Golden Earring
Barry Hay: "Well, well, George Kooymans is going to pour out is heart again"
Intro: (5X)
|------------------|-------------------|-------------------|--------------------|
|-----5--------5---|-----2-------0-----|-----5--------5----|-----2--------0-----|
|------------6-----|---2-------1-------|------------6------|---2--------1-------|
|---6------7-----7-|-0-------2-----2/6-|---6------7------7-|-0--------2-----2/6-|
|--------0---------|-------------------|--------0----------|--------------------|
|-4----------------|-------0-----------|-4-----------------|--------0-----------|
Verse 1:
E/G#	        A            D        E                  E/G#         A
|------------------------|----------------------------|--------------------------|
|-------------------5----|--------2-----------0-------|--------------------5-----|
|--------4--------6------|-----2-----------1----------|--------4--------6--------|
|-----6--------7------7--|--0-----------2--------2/6--|-----6--------7--------7--|
|-----------0------------|----------------------------|-----------0--------------|
|--4---------------------|-----------0----------------|--4-----------------------|
     Another  hour        past  midnight                 moon - shine through the
D           E                E/G#         A            D          E
|---------------------------|-------------------------|--------------------------|
|--------2-----------0------|-------------------5-----|--------2-----------0-----|
|-----2-----------1---------|-------4--------6--------|-----2-----------1--------|
|--0-----------2--------2/6-|----6--------7--------7--|-0-----------2--------2/6-|
|---------------------------|----------0--------------|--------------------------|
|-----------0---------------|-4-----------------------|-----------0--------------|
	sky - line               The bottle's empty and my mind   is full  
E/G#	        A            D        E                  E/G#         A
|------------------------|----------------------------|--------------------------|
|-------------------5----|--------2-----------0-------|--------------------5-----|
|--------4--------6------|-----2-----------1----------|--------4--------6--------|
|-----6--------7------7--|--0-----------2--------2/6--|-----6--------7--------7--|
|-----------0------------|----------------------------|-----------0--------------|
|--4---------------------|-----------0----------------|--4-----------------------|
 of your ghost who keeps haunting this room      And   I__________ could spend all




D           E                E/G#         A            D          E
|---------------------------|-------------------------|--------------------------|
|--------2-----------0------|-------------------5-----|--------2-----------0-----|
|-----2-----------1---------|-------4--------6--------|-----2-----------1--------|
|--0-----------2--------2/6-|----6--------7--------7--|-0-----------2--------2/6-|
|---------------------------|----------0--------------|--------------------------|
|-----------0---------------|-4-----------------------|-----------0--------------|
	my life                   just      sitting here   pa - ra - lized
[ Tab from: http://www.guitartabs.cc/tabs/g/golden_earring/pouring_my_heart_out_again_tab.html ]
E/G#	        A            D        E                  E/G#         A
|------------------------|----------------------------|--------------------------|
|-------------------5----|--------2-----------0-------|--------------------5-----|
|--------4--------6------|-----2-----------1----------|--------4--------6--------|
|-----6--------7------7--|--0-----------2--------2/6--|-----6--------7--------7--|
|-----------0------------|----------------------------|-----------0--------------|
|--4---------------------|-----------0----------------|--4-----------------------|
I____________ could spend all    my life                 waiting for you    to ma-

D           E                D                         Bm
|---------------------------|-------------------------|--------------2-----------|
|--------2-----------0------|--------3--------3-------|-----------3--------3-----|
|-----2-----------1---------|-----2--------2----------|--------4--------------4--|
|--0-----------2--------2-0-|--0--------0-----------0-|-----4-----------4--------|
|---------------------------|-------------------------|--2-----------------------|
|-----------0---------------|-------------------------|--------------------------|
   rerialize   and             love_________ was the on - ly thing            I
E                           A                           Bm
|----------------0---------|---------------------------|-------------------------|
|-------------------0------|-----------2--------2------|-----------3-------------|
|----------1--2--------2---|--------2--------2---------|--------4----------4-----|
|-------2------------------|-----2-----------------0---|-----4----------4-----4--|
|--------------------------|--0------------------------|--2----------------------|
|--0-----------------------|---------------------------|-------------------------|
   al - ways  felt  for you______________                  big - ger   than   a- 
                              E
|--------------2-----------|--0-----------------------|--------------------------|
|-----------3--------3-----|--0-----------------------|--------------------------|
|--------4-----------------|--1-----------------------|--------------------------|
|-----4-----------4--------|--2-----------------------|--------------------------|
|--2-----------------------|--2-----------------------|--------------------------|
|--------------------------|--0-----------------------|--------------------------|
   ny - thing                           baby  I'd  die_____  for  you  now

Refrain:
A                                       D
Hold me 'Cause I think I'm falling like rain___________
        Bm              D                             F#m/C#
on a Monday morning     And________when it rains_____ I'm pouring
E                     E          A
my heart out again_________ now  Hold me 'cause I 
                       D              Bm
think I'm falling like rain   on a Monday morning
D                   F#m/C#       E
And when it rains   I'm pouring  my heart out again__
(guitarsolo)
A                   F#m/C#        F#m
And  when it rains  I'm pouring   my heart out again
      A    Asus4                               D
Now   hold me  'cause I think I'm falling like rain
         Bm              D
on a  monday morning     And when it rains    
F#m/C#                                E/G#
I'm pouring_______  my heart out again________
D  E              A    D        E              E/G# A         D
My heart out again___  ooh  I'm pouring my heart    out again


Verse 2:
I can't remember		I can't forget
I can't see  'cause my eyes are wet
The bottle's empty and it says: you fool
How many tears do I spill for you
And I could spend all my life
Just sitting here paralized
I could spend all my life
Like a thorn or glass in your eyes
And love was the only thing I always felt for you
Bigger than anything baby I'd die for you 
Now hold me 'cause I think I'm falling like rain
on a Monday morning 
(play this 3 times)
And when it rains I'm pouring my heart out again
Now hold me 'cause I think I'm falling like rain
on a Monday morning
And when it rains I'm pouring my heart out again
My heart out again

Tabbed by Puddler trickey song but nonetheless a gooder
Comments