Godspeed You Black Emperor - East Hastings Chords & Tabs

 

East Hastings Chords & Tabs

Godspeed You Black Emperor Chords & Tabs

Version: 1 Type: Tab 1 rating
1 star 2 stars 3 stars 4 stars 5 stars
comments

East Hastings Tab

Artist:    Godspeed You! Black Emperor
Title:     East Hastings (28 Days Later Soundtrack)
Tabbed by: Brian Gunn (takeyourladderdown@hotmail.com)
Date:      1/13/2004

This is the tab for East Hatings by Godspeed You! Black emperor. This is a 
fantastic piece of music which is epic and very atmospheric. The guitar is
simple but very tasteful. This is only the second tab I've ever made, but it's
pretty much 100% accurate to my ear, apart from the maybe end section which is
hard to make out. Hope you get on OK, if you have any comments, suggestions
or problems just email me.

I've split this song into sections. Heres the order to play:
1, 2, 3A, 2, 3B, 4, 5, 6, 7, 8.

Section 1: [2:15]
----------------------------------------------------------------------------------
----------------------------------------------------------------------------------
-------6--6--5--5-------6--6--6s2--2-------6--6--6--s8--8----6--6--6--s3--3-------
----------------------------------------------------------------------------------
----------------------------------------------------------------------------------
----------------------------------------------------------------------------------

----------------------------------------------------------------------------------
----------------------------------------------------------------------------------
----6--6--6--s5--5----6--6--6--s2--2-------6--6--6--s8--8----6--6--6--s3--3-------
----------------------------------------------------------------------------------
----------------------------------------------------------------------------------
----------------------------------------------------------------------------------


Section 2: [4:35], [5.40]
----------------------------------------------------------------------------------
----------------------------------------------------------------------------------
----10-10-10-11-8-----8--8--8--10--6--------6--6--6--8--5----5--5-b6-r5---3-------
----------------------------------------------------------------------------------
----------------------------------------------------------------------------------
----------------------------------------------------------------------------------x2

Section 3A: [5:05]
----------------------------------------------------------------------------------
----------------------------------------------------------------------------------
----6--6--6---5--5----6--6--6--s2--2-------6--6--6--s8--8----6--6--6--s3--3-------
----------------------------------------------------------------------------------
----------------------------------------------------------------------------------
----------------------------------------------------------------------------------x2

Section 3B: [6:35]
----------------------------------------------------------------------------------
----------------------------------------------------------------------------------
----6--6--6---5--5----6--6--6--s2--2-------6--6--6--s8--8----6--6--6--s3--3-------
----------------------------------------------------------------------------------
----------------------------------------------------------------------------------
----------------------------------------------------------------------------------

--------------------------------------------------------------
--------------------------------------------------------------
----6--6--6--5--5---6--6--6--s3--5b6--3-----6--6--6--s8--8----
--------------------------------------------------------------
--------------------------------------------------------------
--------------------------------------------------------------

Section 4: [6:50]
---------------------------------------------------------------
---------------------------------------------------------------
--10---11-p10--10---11-p10--10---11-p10--10---11-p10--11p10s8--
---------------------------------------------------------------
---------------------------------------------------------------
---------------------------------------------------------------

---------------------------------------------------------------
---------------------------------------------------------------
--8----10-p8---8----10-p8---8----10-p8---8----10-p8----10p8s6--
---------------------------------------------------------------
---------------------------------------------------------------
---------------------------------------------------------------

---------------------------------------------------------------
---------------------------------------------------------------
--6----8--p6---6----8--p6---6----8--p6---6----8--p6----8-p6s5--
---------------------------------------------------------------
---------------------------------------------------------------
---------------------------------------------------------------

---------------------------------------------------------------
---------------------------------------------------------------
--5----6--p5---5----6--p5---5----6--p5---5----6--p5----6-p5s3--
---------------------------------------------------------------
---------------------------------------------------------------
---------------------------------------------------------------
[ Tab from: http://www.guitartabs.cc/tabs/g/godspeed_you_black_emperor/east_hastings_tab.html ]
---------------------------------------------------------------
---------------------------------------------------------------
--10---11-p10--10---11-p10--10---11-p10--10---11-p10--11p10s8--
---------------------------------------------------------------
---------------------------------------------------------------
---------------------------------------------------------------

---------------------------------------------------------------
---------------------------------------------------------------
--8----10-p8---8----10-p8---8----10-p8---8----10-p8----10p8s6--
---------------------------------------------------------------
---------------------------------------------------------------
---------------------------------------------------------------

---------------------------------------------------------------
---------------------------------------------------------------
--6----8--p6---6----8--p6---6----8--p6---6----8--p6----8-p6----
---------------------------------------------------------------
---------------------------------------------------------------
---------------------------------------------------------------

---------------------------------------------------------------
---------------------------------------------------------------
--5----6-------5----6-------5----6-------5----6--------5b6-----
---------------------------------------------------------------
---------------------------------------------------------------
---------------------------------------------------------------

Section 5: [8:50]
------------------------------------------------------------------------------
----18-18-16-16---------16-16-14-14--------14-14-13-13---------13-13-11-11----
------------------------------------------------------------------------------
------------------------------------------------------------------------------
------------------------------------------------------------------------------
------------------------------------------------------------------------------

------------------------------------------------------------------------------
----11-11-13-13---------13-13-14-14---------14-14-16-16--------16-16-18-18----
------------------------------------------------------------------------------
------------------------------------------------------------------------------
------------------------------------------------------------------------------
------------------------------------------------------------------------------x2
On this section theres another guitar in the background playing this but in
reverse, ie starting at the Bb and ascending to F when the main guitar starts 
at F and descends to Bb.You see what I mean if you listen to the track closely.

Section 6: [9:49]
------------------------------------------------------
----18-18-16-16-14-14-13-13-11--11h13-11--11h13-11----
------------------------------------------------------
------------------------------------------------------
------------------------------------------------------
------------------------------------------------------

------------------------------------------------------
----11h13-11--11h13-11--s6-7-s2--1-h2-1---b--2--------
------------------------------------------------3-----
------------------------------------------------------
------------------------------------------------------
------------------------------------------------------

Section 7: [10:25]
------------------------------------------------------
---11-13-13-11-11-13-13-11-11-13-13-11-11--9--9--11---
------------------------------------------------------
------------------------------------------------------
------------------------------------------------------
------------------------------------------------------

------------------------------------------------------
---11-13-13-11-11-13-13-11-11-13-13-11-11--9--9--11---
------------------------------------------------------
------------------------------------------------------
------------------------------------------------------
------------------------------------------------------

-----------------------------------------------------
---11-13-13-11-11-13-13-11-11-13-13-11-11--9--9--11--
-----------------------------------------------------
-----------------------------------------------------
-----------------------------------------------------
-----------------------------------------------------

-----------------------------------------------------
---11-11b12r11-11-11b12r11-11-11b12r11-11b12-12-12---
-----------------------------------------------------
---- On this section just pick the F# repeatedly ----
---- while bending and returning, listen to the -----
----------- track to see what i mean. ---------------

-----------------------------------------------------
-----------------------------------------------------
-------------------------10-10-10-10-10-10-10-10-10--
-----------------------------------------------------
---- This fades in, then the music crescendos -------
-----------------------------------------------------

Section 8: [13:00]
-----------------------------------------------------
-----------------------------------------------------
--------10--10------8-8------13--13------5--5--------
-----------------------------------------------------
-----------------------------------------------------
-----------------------------------------------------
Theres a lot of effects on this end section, I think 
these may be harmonic notes but I'm not sure. Theres 
definately a delay effect and a lot of reverb.

Then that's it! If you have any questions or comments
feel free to email me, takeyourladderdown@hotmail.com


Comments