Godsmack - Whatever Chords & Tabs

 

Whatever Chords & Tabs

Godsmack Chords & Tabs

Version: 5 Type: Tab 0 ratings
1 star 2 stars 3 stars 4 stars 5 stars
comments

Whatever Tab

Godsmack - Whatever



   This song is pretty heavy and requires that you tune down 
   your low E string to a C, and the A string to a G. It's 
   really a cool way to tune down and you can do alot of stuff
   with it!



   --Beginning, Verses--
   E -----0-0-0-
   B -----7-7-7-
   G ----------- Repeat this a whole bunch of times.
   D -----------
   G -0-0-------
   C -0-0-------


[ Tab from: http://www.guitartabs.cc/tabs/g/godsmack/whatever_tab_ver_5.html ]
   --Pre Chorus--
   E -----------------------------------------------------
   B -----------------------------------------------------
   G -----------------------------------------------------
   D -----------------------------------------------------
   G -0-----0----------6-----------6-6--------------------
   C -0-----0----------6-----------6-6--------------------
   I Feel for you ( muted )
   E -----------------------------------------------------
   B -----------------------------------------------------
   G -----------------------------------------------------
   D ------------------3----------------------------------
   G -0-----0----------3----------5-5------------3-3------
   C -0-----0---------------------5-5------------3-3------ 
   I Will behave----- you better go away



   --Chorus--
   E -----------------------------------------------------------
   B -----------------------------------------------------------
   G ------4--3--1--------4--3--1--------4--3--1----------------
   D ------6--5--3--------6--5--3--------6--5--3----------------
   G -0-0------------0-0------------0-0---------------3--3--3--3
   C -0-0------------0-0------------0-0---------------3--3--3--3
   I'm doin the I'm doin the I'm doin the now go away
   best I ever the best that best I ever 
   did I can did


   They throw in some different stuff, but it's all pretty much 
   on these riffs.
Comments