Godsmack - Whatever Chords & Tabs

 

Whatever Chords & Tabs

Godsmack Chords & Tabs

Version: 2 Type: Tab 0 ratings
1 star 2 stars 3 stars 4 stars 5 stars
comments

Whatever Tab

   
     
Godsmack 
Whatever
[ Tab from: http://www.guitartabs.cc/tabs/g/godsmack/whatever_tab_ver_2.html ]
TUNING: down one full step and drop d (C,G,C,F,A,d)
     INTRO/VERSE:
    D|------------------------|
    A|-----------9----9----9--|
    F|----------12---12---12--|
    C|--0--0------------------|
    G|--0--0------------------|
    C|--0--0------------------|
     PRE-CHORUS:
    D|-------------------------------------|
    A|----------3--------------------------|
    F|----------2--------------------------|
    C|--0-------0-------6------------6--6--|
    G|--0-------0-------6------------6--6--|
    C|--0-------0-------6------------6--6--|

    D|-------------------------------------------|
    A|----------3--------------------------------|
    F|----------2--------------------------------|
    C|--0-------0-------10------0--5--5----3--3--|
    G|--0-------0-------10------0--5--5----3--3--|
    C|--0-------0-------10------0--5--5----3--3--|
     CHORUS:
    D|-----------------------|
    A|-----------------------|
    F|-----------------------|
    C|--0--0----6----5----3--|
    G|--0--0----6----5----3--|
    C|--0--0----6----5----3--|


Comments