Godsmack - Whatever Chords & Tabs

 

Whatever Chords & Tabs

Godsmack Chords & Tabs

Version: 1 Type: Tab 1 rating
1 star 2 stars 3 stars 4 stars 5 stars
comments

Whatever Tab

Artist:godsmack
Song:whatever
tabbed by ivan reina (zeta Inri)
it 100% correct!
question:totume@yahoo.com


Track 1
                                                    2x                     
D||------------------------|------------------------||--------------------|
A||-----------7----7----7--|----------7----7----7---||--------------------|
F||*----------9----9----9--|----------9----9----9--*||--------------------|
C||*--0--0-----------------|--0--0-----------------*||--0--0--------------|
G||---0--0-----------------|--0--0------------------||--0--0--------------|
C||---0--0-----------------|--0--0------------------||--0--0--------------|


                                                  3x                    
|------------------------|------------------------||-------------------|
|-----------7----7----7--|----------7----7----7---||-------------------|
|*----------9----9----9--|----------9----9----9--*||-------------------|
|*--0--0-----------------|--0--0-----------------*||--0----------------|
|---0--0-----------------|--0--0------------------||--0----------------|
|---0--0-----------------|--0--0------------------||--0----------------|


                                                               
-------------------|---------------------|--------------------|
--3----------------|---------------------|--------------------|
--2----------------|---------------------|--------------------|
--0----------------|--6------------6---x-|--6--6--------------|
--0----------------|--6------------6---x-|--6--6--------------|
--0----------------|--6------------6---x-|--6--6--------------|


                                                                
-------------------|-------------------|-----------------------|
-------------------|--3----------------|-----------------------|
-------------------|--2----------------|-----------------------|
--0----------------|--0----------------|--10------------10---0-|
--0----------------|--0----------------|--10------------10---0-|
--0----------------|--0----------------|--10------------10---0-|


                                                                         
----------------------|------------------------|------------------------|
----------------------|------------------------|------------------------|
----------------------|------------------------|------------------------|
--6--6------3--3------|--0--0----6h-6--5----3--|--0--0----6h-6--5----3--|
--6--6------3--3------|--0--0----6h-6--5----3--|--0--0----6h-6--5----3--|
--6--6------3--3------|--0--0----6h-6--5----3--|--0--0----6h-6--5----3--|


                                                                        
------------------------|--------------------||------------------------|
------------------------|--------------------||-----------7----7----7--|
------------------------|--------------------||*----------9----9----9--|
--0--0----6h-6--5----3--|--0--0--------------||*--0--0-----------------|
--0--0----6h-6--5----3--|--0--0--------------||---0--0-----------------|
--0--0----6h-6--5----3--|--0--0--------------||---0--0-----------------|


                        2x                                                 3x
------------------------||------------------------|------------------------||
----------7----7----7---||-----------7----7----7--|----------7----7----7---||
----------9----9----9--*||*----------9----9----9--|----------9----9----9--*||
--0--0-----------------*||*--0--0-----------------|--0--0-----------------*||
--0--0------------------||---0--0-----------------|--0--0------------------||
--0--0------------------||---0--0-----------------|--0--0------------------||


                                                              
-------------------|-------------------|---------------------|
-------------------|--3----------------|---------------------|
-------------------|--2----------------|---------------------|
--0----------------|--0----------------|--6------------6---x-|
--0----------------|--0----------------|--6------------6---x-|
--0----------------|--0----------------|--6------------6---x-|


                                                             
--------------------|-------------------|-------------------|
--------------------|-------------------|--3----------------|
--------------------|-------------------|--2----------------|
--6--6--------------|--0----------------|--0----------------|
--6--6--------------|--0----------------|--0----------------|
--6--6--------------|--0----------------|--0----------------|


                                                                     
-----------------------|------------------------|-------------------|
-----------------------|------------------------|-------------------|
-----------------------|------------------------|-------------------|
--10------------10---0-|--5--5----0--3--3----0--|--0----------------|
--10------------10---0-|--5--5----0--3--3----0--|--0----------------|
--10------------10---0-|--5--5----0--3--3----0--|--0----------------|


                                                               
-------------------|---------------------|--------------------|
--3----------------|---------------------|--------------------|
--2----------------|---------------------|--------------------|
--0----------------|--6------------6---x-|--6--6--------------|
--0----------------|--6------------6---x-|--6--6--------------|
--0----------------|--6------------6---x-|--6--6--------------|

[ Tab from: http://www.guitartabs.cc/tabs/g/godsmack/whatever_tab.html ]
                                                                
-------------------|-------------------|-----------------------|
-------------------|--3----------------|-----------------------|
-------------------|--2----------------|-----------------------|
--0----------------|--0----------------|--10------------10---0-|
--0----------------|--0----------------|--10------------10---0-|
--0----------------|--0----------------|--10------------10---0-|


                                                                           
------------------------|------------------------|------------------------|
------------------------|------------------------|------------------------|
------------------------|------------------------|------------------------|
--5--5----0--3--3----0--|--0--0----6h-6--5----3--|--0--0----6h-6--5----3--|
--5--5----0--3--3----0--|--0--0----6h-6--5----3--|--0--0----6h-6--5----3--|
--5--5----0--3--3----0--|--0--0----6h-6--5----3--|--0--0----6h-6--5----3--|


                                                                                
------------------------|-----------------------|------------------------------|
------------------------|-----------------------|------------------------------|
------------------------|-----------------------|--7--7/---13-13---12--12--10--|
--0--0----6h-6--5----3--|--0--3----3----3----3--|------------------------------|
--0--0----6h-6--5----3--|--0--3----3----3----3--|--5--5/---11-11---10--10--8---|
--0--0----6h-6--5----3--|--0--3----3----3----3--|------------------------------|


                                                      
--------------------------|--------------------------|
--------------------------|--------------------------|
--7--7/---13----12----10--|--7--7/---13----12----10--|
--------------------------|--------------------------|
--5--5/---11----10----8---|--5--5/---11----10----8---|
--------------------------|--------------------------|


                                                                           
-----------------------------|--------------------|----------||-----------|
-----------------------------|--------------------|----------||-----------|
--x--10--x-x-10----10----10--|--7--7--------------|----------||*----------|
-------------------10--------|--------------------|----------||*----------|
--x--8---x-x-8-----8-----8---|--5--5--------------|----------||-----------|
-----------------------------|--------------------|----------||-----------|


           6x                                                               3x
-----------||-------------------||---------------------|--------------------||
-----------||-------------------||---------------------|--------------------||
----------*||-------------------||*--------------------|-------------------*||
----------*||----------------0--||*--0--0--------------|----------------0--*||
-----------||----------------0--||---0--0--------------|----------------0---||
-----------||-------------------||---0--0--------------|--------------------||


                       2x                                              
-----------------------||--------------------|------------------------|
-----------------------||--------------------|------------------------|
*---------------------*||--------------------|------------------------|
*--0--0------------0--*||--0--0--------------|--0--0----6h-6--5----3--|
---0--0------------0---||--0--0--------------|--0--0----6h-6--5----3--|
---0--0------------0---||--0--0--------------|--0--0----6h-6--5----3--|


                                                                          
------------------------|------------------------|-----------------------|
------------------------|------------------------|-----------------------|
------------------------|------------------------|-----------------------|
--0--0----6h-6--5----3--|--0--0----6h-6--5----3--|--0--3----3----3----3--|
--0--0----6h-6--5----3--|--0--0----6h-6--5----3--|--0--3----3----3----3--|
--0--0----6h-6--5----3--|--0--0----6h-6--5----3--|--0--3----3----3----3--|


                                                          
------------------------------|--------------------------|
------------------------------|--------------------------|
--7--7/---13-13---12--12--10--|--7--7/---13----12----10--|
------------------------------|--------------------------|
--5--5/---11-11---10--10--8---|--5--5/---11----10----8---|
------------------------------|--------------------------|


                                                         
--------------------------|-----------------------------|
--------------------------|-----------------------------|
--7--7/---13----12----10--|--x--10--x-x-10----10----10--|
--------------------------|-------------------10--------|
--5--5/---11----10----8---|--x--8---x-x-8-----8-----8---|
--------------------------|-----------------------------|


                                                  3x                         2x
|------------------------|------------------------||-------------------------||
|-----------7----7----7--|----------7----7----7---||-----------7----7----7---||
|*----------9----9----9--|----------9----9----9--*||*----------9----9----9--*||
|*--0--0-----------------|--0--0-----------------*||*--0--0-----------------*||
|---0--0-----------------|--0--0------------------||---0--0------------------||
|---0--0-----------------|--0--0------------------||---0--0------------------||


                      
--------------------||
--------------------||
--------------------||
--0--0--------------||
--0--0--------------||
--0--0--------------||


Comments