Godsmack - What Ever Chords & Tabs

 

What Ever Chords & Tabs

Godsmack Chords & Tabs

Version: 1 Type: Tab 0 ratings
1 star 2 stars 3 stars 4 stars 5 stars
comments

What Ever Tab

What ever
By Godsmack
Tabbed by Andy Finck
Drop d tuning
I didn't bother tabbing the timing,so you know song.If not you should.
intro & verse             prechorus
              ^  ^  ^
e------------------------|--------------------------------------------
b-------------8--8--8----|--------------------------------------------
g-------------7--7--7----|--------------------------------------------
d--0-0-------------------|-0---0----4---44-----0--0---5--44-----22----
a--0-0-------------------|-0---0----4---44-----0--0---5--44-----22----
d--0-0-------------------|-0---0----4---44-----0--0---5--44-----22----
    pm                                  pm               pm     pm
      And I wonder..	    I feel for you,   better..	

chorus

e---------------------------------------------------------------------
b---------------------------------------------------------------------
g---------------------------------------------------------------------
d-00--44-2-1-00--44-2-1-00--44-2-1-11---------------------------------
a-00--44-2-1-00--44-2-1-00--44-2-1-11---------------------------------
d-00--44-2-1-00--44-2-1-00--44-2-1-11---------------------------------
    I'm doin'the best I ever did   pm

there you go!!
at least thats how I hear it.If any corrections send them to me.
andy@netpluscom.com
[ Tab from: http://www.guitartabs.cc/tabs/g/godsmack/what_ever_tab.html ]
Comments