Godsmack - Voodoo Chords & Tabs

 

Voodoo Chords & Tabs

Godsmack Chords & Tabs

Version: 2 Type: Tab 0 ratings
1 star 2 stars 3 stars 4 stars 5 stars
comments

Voodoo Tab

   
Godsmack- voodoo
by Mark fields (peece2u2000 on AIM) 
This is my first tab & im pretty sure its correct

DROP D TUNING (D,A,D,G,B,e)

(during drum part, any time hes singing besides chorus)
-----------------
-----------------
-----------------
---3-3-4-3-------
---3-3-4-3-------
---3-3-4-3-------

(chorus)
             
             Im not theone whose....
-------------------------------------------------------
-------------------------------------------------------
-------------------------------------------------------
1-1-1-1-1-----3-3-3-3-3-1-1-3-3-3-3-3-3-3-3-6-6-5-5-6-5
1-1-1-1-1-----3-3-3-3-3-1-1-3-3-3-3-3-3-3-3-6-6-5-5-6-5
1-1-1-1-1--/--3-3-3-3-3-1-1-3-3-3-3-3-3-3-3-6-6-5-5-6-5
[ Tab from: http://www.guitartabs.cc/tabs/g/godsmack/voodoo_tab_ver_2.html ]
never did1 wanna be here again.....
---------------------------------------
---------------------------------------
---------------------------------------
3-3-3-3-3-1-1-3-3-3-3-3-3-3-3-6-6-5-6-5
3-3-3-3-3-1-1-3-3-3-3-3-3-3-3-6-6-5-6-5
3-3-3-3-3-1-1-3-3-3-3-3-3-3-3-6-6-5-6-5



-----------------------
-----------------------
-----------------------
1-1-1-1-1-1-1-1/3-3-4-3
1-1-1-1-1-1-1-1/3-3-4-3
1-1-1-1-1-1-1-1/3-3-4-3     x2


---------------
---------------
---------------
1-1-1-1-1-1-1-1
1-1-1-1-1-1-1-1
1-1-1-1-1-1-1-1 - then back to chorus


LYRICS:

"I'm not the one who's so far away
When I feel the snake bit enter my veins.
Never did I wanna be here again,
And I don't remember why I came."

Candles raise my desire,
Why I'm so far away.
No more meaning to my life,
No more reason to stay.

Freezing, feeling,
Breathe in, breathe in...
I'm coming back again...

[repeat chorus]

Hazing clouds rain on my head,
Empty thoughts fill my ears.
Find my shade by the moonlight,
Why my thoughts aren't so clear.

Demons dreaming,
Breathe in, breathe in...
I'm coming back again...

[repeat chorus 4 times]

Voodoo, voodoo, voodoo, voodoo.
[repeat]

[So far away...
I'm not the one who's so far away...
I'm not the one who's so far away...
I'm not the one who's so far away...]
Comments