Godsmack - Voodoo Chords & Tabs

 

Voodoo Chords & Tabs

Godsmack Chords & Tabs

Version: 5 Type: Bass Tab 0 ratings
1 star 2 stars 3 stars 4 stars 5 stars
comments

Voodoo Bass Tab

Artist - Godsmack
Song - Voodoo
Album - Godsmack

Standard tuning (EADG)

Verse:

G/-----------------------
D/---------3-4-3---------
A/---------------3-------
E/-1-1-1-1---------4-3-0-

Chorus:

G/---------------------------
D/-----------3-1-----------1-
A/---1---1-3-----3-----1-3---
E/-1---1-----------4---------
[ Tab from: http://www.guitartabs.cc/tabs/g/godsmack/voodoo_btab_ver_5.html ]
G/--------------------------
D/-----------1--------------
A/---1---1-3----------------
E/-1---1-------4-4-4-3-4-3-0

G/---------------------------
D/-----------3-1-----------1-
A/---1---1-3-----3-----1-3---
E/-1---1-----------4---------

G/-------------------
D/-----------1-------
A/---1---1-3---------
E/-1---1--------0-0-1
Comments