Godsmack - Voodoo Chords & Tabs

 

Voodoo Chords & Tabs

Godsmack Chords & Tabs

Version: 3 Type: Bass Tab 0 ratings
1 star 2 stars 3 stars 4 stars 5 stars
comments

Voodoo Bass Tab

Song: Voodoo
Artist: Godsmack
Album: Self Titled
Tabbed By: Ba$$ Lizard

PREVIOUS AUTHORS Christopher Banks: ashe1977@hotmail.com,
Seth Lemons: Thasolumn@yahoo.com


I've seen both of the tabs for this song, and neither are correct.
I thought this song was fairly easy, but since nobody seems to get 
it right i'll post the right version. Also, nobody has included the
chorus riff.

First of all, drop your E string to D. You don't need it for the 
verse but you have to to play the chorus correctly.
[ Tab from: http://www.guitartabs.cc/tabs/g/godsmack/voodoo_btab_ver_3.html ]
G:----------------------------
d:----------4-5-4-------------  
A:----------------4---3-4-3---  
D:-3-x-33---------------------

Chorus (Follows the Chords played by the guitar, I'm 95% sure this is
right)


G:---------------------------------------------------------------
d:---------------------------------------------------------------
A:---------------------------------------------------------------
D:-3-3-3-3-3-3-3-3-1-1-1-3-3-3--1-1-3-3-3-3-3-3-3-3/6-6-6-5/6-5\4

I may have the exact number of times you play each note right,
but it should be enought to figure it out.  The verse is correct
though. Also, i might be off by a fret or on those slides at the 
end of the chorus.  If anyone has anything better, i'm open to 
suggestion.
Comments