Godsmack - Voices Chords & Tabs

 

Voices Chords & Tabs

Godsmack Chords & Tabs

Version: 1 Type: Tab 0 ratings
1 star 2 stars 3 stars 4 stars 5 stars
comments

Voices Tab

Band- Godsmack
Album- The Other Side
Song- Voices
Tuning- Drop D(acoustic)

This is every part even the solo.

Intro
|-0--0--0-0-0--0-0--0-0-0-0-0--0--0--0-0-0--0-0--0-0-0-0-0-|
|-0--0--0-0-0--0-0--0-0-0-0-0--3--3--3-3-3--3-3--3-3-3-3-3-|
|-1--1--1-1-1--1-1--1-1-1-1-1--2--2--2-2-2--2-2--2-2-2-2-2-|
|-2--2--2-2-2--2-2--2-2-2-2-2--0--0--0-0-0--0-0--0-0-0-0-0-|
|-2--2--2-2-2--2-2--2-2-2-2-2------------------------------|
|-0--0--0-0-0--0-0--0-0-0-0-0------------------------------|

Verse
|-0---0--0-0---------------------------------------------|
|-0---0--0-0-0-0-0-0-0-0-0-0--0---0--0-0-0-0-0-0-0-0-0-0-|
|-1---1--1-1-0-0-0-0-0-0-0-0--0---0--0-0-0-0-0-0-0-0-0-0-|
|-2---2--2-2-0-0-0-0-0-0-0-0--2---2--2-2-4-4-4-4-4-4-4-4-|
|-2---2--2-2-2-2-2-2-2-2-2-2--3---3--3-3-5-5-5-5-5-5-5-5-|
|-0---0--0-0-3-3-3-3-3-3-3-3-----------------------------|

Interlude:Parts 1 & 2
|-0---0--0--0-0-0-0-0-0-0-0-----2-2-2-2-2-2--2--2--2-2-|
|-5---5--5--5-5-5-5-5-5-5-5-----3-3-3-3-3-3--3--3--3-3-|
|-6---6--6--6-6-6-6-6-6-6-6-----2-2-2-2-2-2--2--2--2-2-|
|-7---7--7--7-7-7-7-7-7-7-7--0--0-0-0-0-0-0--0--0--0-0-|
|-0----------------------------------------------------|
|------------------------------------------------------|

Part 2
|----------------------------------------------------|
|-3--3-3-3-3-3---3--3-3-3-3-4--4-4-4-4-4--4--4-4-4-4-|
|-0--0-0-0-0-0---0--0-0-0-0-4--4-4-4-4-4--4--4-4-4-4-|
|-2--2-2-2-2-2---2--2-2-2-2-4--4-4-4-4-4--4--4-4-4-4-|
|-3--3-3-3-3-3---3--3-3-3-3-2--2-2-2-2-2--2--2-2-2-2-|
|----------------------------------------------------|

Repeat verse riffs
[ Tab from: http://www.guitartabs.cc/tabs/g/godsmack/voices_tab.html ]
Chorus
|-0---0--0-0-0-0-0-0-0-0-0---0--0-0-0-0-0-0-0-0-|
|-0---0--0-0-0-0-0-0-0-0-3---3--3-3-3-3-3-3-3-3-|
|-1---1--1-1-1-1-1-1-1-1-2---2--2-2-2-2-2-2-2-2-|
|-2---2--2-2-2-2-2-2-2-2-0---0--0-0-0-0-0-0-0-0-|
|-2---2--2-2-2-2-2-2-2-2------------------------|
|-0---0--0-0-0-0-0-0-0-0------------------------|

Solo
|-----------------------------------------7-----------------------|
|-10^--10-10--10-10-10p8-10----8-10-8-10^---8---------------------|
|---------------------------------------------9-9p7---7---7---7/9-|
|---------------------------------------------------9---9---9-----|
|-----------------------------------------------------------------|
|-----------------------------------------------------------------|

|---------------------------------------------------|
|-8p7-----8p7---7---10p7-8p7--7---------------------|
|-----9p7-----9---9-------------9-7-9p7----7---7--9-|
|----------------------------------------9---9------|
|---------------------------------------------------|
|---------------------------------------------------|

|------------------------------------------------|
|-2h3p2-5--3p2---2-------------------------------|
|--------------4---4-2h4-2-------2-----2-----4p2-|
|----------------------------2h4---2h4---2h4-----|
|------------------------------------------------|
|------------------------------------------------|

|-------12-------12-------12-------12-------12-----12--12--|
|----12-------12-------12-------12-------12----12--15^-15^-|
|-14^------14^------14^------14^------14^------------------|
|----------------------------------------------------------|
|----------------------------------------------------------|
|----------------------------------------------------------|

That's the whole song. ENJOY!!!!!
Comments