Godsmack - Vampires Chords & Tabs

 

Vampires Chords & Tabs

Godsmack Chords & Tabs

Version: 3 Type: Tab 0 ratings
1 star 2 stars 3 stars 4 stars 5 stars
comments

Vampires Tab

i'm sorry guys...i submitted the bass tabs instead of the guitar tabs...
here's the guitar part...pretty much the same as the bass part...again i apologize..

Godsmack
Vampires
Tuning - CGCFAD
1-17-01
Tabbed By: Emilio (emiliograveran@hotmail.com)

This is my first tabbed song so take it easy on me.  I take all comments at 
emiliograveran@hotmail.com.  thanks.

KEY:
/ - 	slide down
\ - 	slide up
(2) - 	let note (or chord) ring out
{2} - 	palm mute
9 - 	tremolo picking 
tr
S -	long slide
x -	muted string


C   -2-2---2/5-5---2/7-7---------------------8-8-8-888\77777\5----------          
G   -2-2---2/5-5---2/7-7--three times...then-8-8-8-888\77777\5---------- 
C   -2-2---2/5-5---2/7-7---------------------8-8-8-888\77777\5----------
                      play this verse 3 times then to the next verse
 
C   -2-2---2/5-5---2/7-7---------------------(2)------------------------ 
G   -2-2---2/5-5---2/7-7---four times...then-(2)------------------------ 
C   -2-2---2/5-5---2/7-7---------------------(2)------------------------
         let notes ring out                  let chord ring out then next verse...

C   -\13-----2-2--2/5-5---2/7-7---------------------8-8-8-888\77777\5--- 
G   -\13-----2-2--2/5-5---2/7-7--three times..then--8-8-8-888\77777\5--- 
C   -\13-----2-2--2/5-5---2/7-7---------------------8-8-8-888\77777\5---
                             play this once then next 

C   -2-2--2/5-5--2/7-7--2-2--{2--2}--2/5-5---2/7-7---2-2---2/5-5--2/7-7- 
G   -2-2--2/5-5--2/7-7--2-2--{2--2}--2/5-5---2/7-7---2-2---2/5-5--2/7-7- 
C   -2-2--2/5-5--2/7-7--2-2--{2--2}--2/5-5---2/7-7---2-2---2/5-5--2/7-7-				                                     

C   -2-2-{2222}--2/5-5---2/5-5---2/5-5---2/5-5---(2)-------------------- 
G   -2-2-{2222}--2/5-5---2/5-5---2/5-5---2/5-5---(2)-------------------- 
C   -2-2-{2222}--2/5-5---2/5-5---2/5-5---2/5-5---(2)--------------------
          -PM-

C   -2-2--2-2h5-2h5-2--------------------------------------------------- 
G   -2-2--2-2h5-2h5-2---REST-------------------------------------------- 
C   -2-2--2-2h5-2h5-2---------------------------------------------------

C   -2-2--2-2h5-2h5-2-2--2-2-22--------------------2-2--2-2h5-2-2h5-2--- 
G   -2-2--2-2h5-2h5-2-2--2-2-22---seven times----- 2-2--2-2h5-2-2h5-2--- 
C   -2-2--2-2h5-2h5-2-2--2-2-22--------------------2-2--2-2h5-2-2h5-2---

C   -{2222222222222222222}--2--{0-0}--7--{0}--9--{0-0-0}--4-3--{0-0}---- 
G   -{2222222222222222222}--2--{0-0}--7--{0}--9--{0-0-0}--4-3--{0-0}---- 
C   -{2222222222222222222}--2--{0-0}--7--{0}--9--{0-0-0}--4-3--{0-0}----
      ---palm mute-------       -----------------play this 3 times------

C   -2-2--2-2--2-2--2-2--22---2--{0-0}--7--{0}--9--{0-0-0}--4-3--{0-0}-- 
G   -2-2--2-2--2-2--2-2--22---2--{0-0}--7--{0}--9--{0-0-0}--4-3--{0-0}-- 
C   -2-2--2-2--2-2--2-2--22---2--{0-0}--7--{0}--9--{0-0-0}--4-3--{0-0}--
                                 ----play this 3 times------------------
[ Tab from: http://www.guitartabs.cc/tabs/g/godsmack/vampires_tab_ver_3.html ]
C   -2-2--2-2--2-2--2-2--22---2--{0-0}--7--{0}--9--{0-0-0}--4-3--{0-0}-- 
G   -2-2--2-2--2-2--2-2--22---2--{0-0}--7--{0}--9--{0-0-0}--4-3--{0-0}-- 
C   -2-2--2-2--2-2--2-2--22---2--{0-0}--7--{0}--9--{0-0-0}--4-3--{0-0}--
                              --play this 3 times under the solo--------
                           --and replace {0-0} with 2-2 on 4th time-----

SOLO w/ wah pedal & tremolo picking

D   --------------------------------------------------------------------
A   --------------------------------------------------------------------
F   -9--12--15--18--18b--18b--19b--19b--20b--20b--21b21b21b----\21------
C   --------------------------------------------------------------------
G   --------------------------------------------------------------------
C   --------------------------------------------------------------------

C   -22--2--{0-0}--7--{0}--9--{0-0-0}--22------------------------------- 
G   -22--2--{0-0}--7--{0}--9--{0-0-0}--22------------------------------- 
C   -22--2--{0-0}--7--{0}--9--{0-0-0}--22-------------------------------

C   -2--{0-0}--7--{0}--9--{0}--22--{0-0}-------------------------------- 
G   -2--{0-0}--7--{0}--9--{0}--22--{0-0}-------------------------------- 
C   -2--{0-0}--7--{0}--9--{0}--22--{0-0}--------------------------------

C   -2--{0-0}--7--{0}--9--{0-0-0}--22----------------------------------- 
G   -2--{0-0}--7--{0}--9--{0-0-0}--22----------------------------------- 
C   -2--{0-0}--7--{0}--9--{0-0-0}--22-----------------------------------

C   -2--{0-0}--7--{0}--9--{0}--22--------------------------------------- 
G   -2--{0-0}--7--{0}--9--{0}--22--------------------------------------- 
C   -2--{0-0}--7--{0}--9--{0}--22---------------------------------------

C   -{0-0}--22--{0-0}--22--{0-0}--2--{0-0-0}--(2)----------------------- 
G   -{0-0}--22--{0-0}--22--{0-0}--2--{0-0-0}--(2)----------------------- 
C   -{0-0}--22--{0-0}--22--{0-0}--2--{0-0-0}--(2)-----------------------

C   -\13---2-2--2/5-5---2/7-7--------8-8-8-888\77-S-2-2--2/5-5--2/7-7-- 
G   -\13---2-2--2/5-5---2/7-73times-8-8-8-888\77-S-2-2--2/5-5--2/7-7-- 
C   -\13---2-2--2/5-5---2/7-7--------8-8-8-888\77-S-2-2--2/5-5--2/7-7-- 

C   -2-2---2/5-5---2/7-7---------------------8-8-8-888\77777\5---------- 
G   -2-2---2/5-5---2/7-7--three times..then--8-8-8-888\77777\5--------- 
C   -2-2---2/5-5---2/7-7---------------------8-8-8-888\77777\5----------

C   -2-2---2/5-5---2/7-7--------------------------8-8-8-888\77777\5----- 
G   -2-2---2/5-5---2/7-7--three times..then stop--8-8-8-888\77777\5---- 
C   -2-2---2/5-5---2/7-7--------------------------8-8-8-888\77777\5-----

                                played under last 2 measures of rhythm
D   --------------------------------------------------------------------
A   -------------------------------------------------------------------- 
F   -9--9---9/12-12---9/14-14-------------------------------------------
C   -x--x---x-xx-xx---x-xx-xx------four times then stop-----------------
G   -7--7---7/10-10---7/12-12------------------------------------------- 
C   --------------------------------------------------------------------
Comments