Godsmack - Vampires Chords & Tabs

 

Vampires Chords & Tabs

Godsmack Chords & Tabs

Version: 1 Type: Tab 1 rating
1 star 2 stars 3 stars 4 stars 5 stars
comments

Vampires Tab

   
Vampires by Godsmack
Godsmack tunes down an entire step. Tune your guitar this way: D,G,C,F,A,D. Some think 
they use a drop D tuning. 

Everything Godsmack plays, they play tuned down a whole step. 

This is my take on Vampires.
By Thor


Opening riff

Chords listed below this line,
      D    F    G    D

D)---0-----3----5----0---------------------------------
A)---0-----3----5----0---------------------------------
F)---1-----4----6----1---------------------------------
C)---2-----5----7----2---------------------------------
G)---2-----5----7----2---------------------------------
D)---0-----3----5----0---------------------------------

Run this 3 times, on the third time, you will play this:

      D    F    G    G#   G    F    D
[ Tab from: http://www.guitartabs.cc/tabs/g/godsmack/vampires_tab.html ]
D)---0-----3----5----6----5----3----0---------------------
A)---0-----3----5----6----5----3----0---------------------
F)---1-----4----6----7----6----4----1---------------------
C)---2-----5----7----8----7----5----2---------------------
G)---2-----5----7----8----7----5----2---------------------
D)---0-----3----5----6----5----3----0---------------------

The song repeats the first part over and over, most of it is muted after the chord is played.
Acouple of times through, Tony let's the cords ring (no muting).

There are little variations on this riff throuhgout the song. I'm not much on soloing, but I 
got this one I think.

Any questions, email me at: iammightythor@yahoo.com

I was going to put Awake up here too, but there were already 4 up here. Hint, Awake is a drop C tuning:
C,G,C,F,A,D. For those that don't want to tune down, you really don't want to play it right now do you!!


Comments