Godsmack - Touche Chords & Tabs

 

Touche Chords & Tabs

Godsmack Chords & Tabs

Version: 1 Type: Bass Tab 0 ratings
1 star 2 stars 3 stars 4 stars 5 stars
comments

Touche Bass Tab

Band- Godsmack
Song- Touche
Tuning- Drop C

Intro:
--------|
-0------|
--------|
--------|


Verses:
---------------------------|
--0----------------------0-|
-----0h2-3--2h3-2----------|
--------------------3------|

[ Tab from: http://www.guitartabs.cc/tabs/g/godsmack/touche_btab.html ]
Fill before Chorus:
-----------------------|
-----------------------|
-2h3-2-----------------|
-------3-2-------------|


Chorus:
-------------------------|
---------------------0---|
-------------------------|
-1-1-1--1h3--1-3b-1------|
Comments