Godsmack - Sweet Leaf Chords & Tabs

 

Sweet Leaf Chords & Tabs

Godsmack Chords & Tabs

Version: 1 Type: Bass Tab 0 ratings
1 star 2 stars 3 stars 4 stars 5 stars
comments

Sweet Leaf Bass Tab

Band- Godsmack
Song- Sweet Leaf

verse
g---------------------------------------------------------------------------|
d---------------------------------------------------------------------------|
a---------------------------------------------------------------------------|
d-------0-0------5-4-3-3-3-5----------0-0------5-4-3-3-3-5------------------|
[ Tab from: http://www.guitartabs.cc/tabs/g/godsmack/sweet_leaf_btab.html ]
bridge
g-------------------------------------------------------------------|
d-------------------------------------------------------------------|
a--------------3-5------3--------------------------5-5-5-5-5-5-5-5--|
d-------0---------------------3-------7------0----------------------|

g---------------------------------------------------------------|
d---------------------------------------------------------------|
a--------------3-5------3--------------------------5-5-5-5-5-5--|
d-------0---------------------3-------7------0------------------|
Comments