Godsmack - Stress Chords & Tabs

 

Stress Chords & Tabs

Godsmack Chords & Tabs

Version: 1 Type: Bass Tab 0 ratings
1 star 2 stars 3 stars 4 stars 5 stars
comments

Stress Bass Tab

   
Band- Godsmack
Song- Stress

TUNING: D-A-D-G (LOW TO HIGH)

/ slide up
\ slide down
^ bend

GUITAR INTRO (WAIT 2 RIFFS)

INTRO-VERSE [0:10]
|-------------------------------------------------------------|
|-------------------------------------------------------------|
|-------------------------------------------------------------|
|-7/9-9-9-9---7/9-9-9-9---7-9-10-----7/9-9-9-9---7/9-9-9-9--9-|x6

CHORUS [0:40]
|----------------------------|
|----------------------------|
|-7---7--7-7--5---5-5--10--5-|
|----------------------------|x1

VERSE [0:45]
|-------------------------------------------------------------|
|-------------------------------------------------------------|
|-------------------------------------------------------------|
|-7/9-9-9-9---7/9-9-9-9---7-9-10-----7/9-9-9-9---7/9-9-9-9--9-|x1

CHORUS  [0:50]                    BASS FILL1 [0:55]
|----------------------------|    |-----------------------------|
|----------------------------|    |-----------------------------|
|-7---7--7-7--5----5-5--10-5-|    |-----------------------------|
|----------------------------|x1  |22-------22-------22-------22|x1

VERSE [1:05]
|-------------------------------------------------------------|
|-------------------------------------------------------------|
|-------------------------------------------------------------|
|-7/9-9-9-9---7/9-9-9-9---7-9-10-----7/9-9-9-9---7/9-9-9-9--9-|x6

CHORUS [1:35]
|----------------------------|
|----------------------------|
|-7---7--7-7--5----5-5--10-5-|
|----------------------------|x1

VERSE [1:40]
|-------------------------------------------------------------|
|-------------------------------------------------------------|
|-------------------------------------------------------------|
|-7/9-9-9-9---7/9-9-9-9---7-9-10-----7/9-9-9-9---7/9-9-9-9--9-|x1

CHORUS [1:45]
|----------------------------|
|----------------------------|
|-7---7--7-7--5----5-5--10-5-|
|----------------------------|x1

GUITAR FILL (WAIT 4 RIFFS)
[ Tab from: http://www.guitartabs.cc/tabs/g/godsmack/stress_btab.html ]
BASS FILL2 [2:00]
|-----------------------------|
|-----------------------------|
|-----------------------------|
|-2-2/0--\2-2/6---------------|x4

BRIDGE 1 [2:20]
|-------------------------------------------------------------|
|-------------------------------------------------------------|
|-------------------------------------------------------------|
|-7/9-9-9-9---7/9-9-9-9---7-9-10-----7/9-9-9-9---7/9-9-9-7--7-|x4

BASS FILL2 [2:40]
|-----------------------------|
|-----------------------------|
|-----------------------------|
|-2-2/0--\2-2/6---------------|x4

BRIDGE 1 [2:49]
|-------------------------------------------------------------|
|-------------------------------------------------------------|
|-------------------------------------------------------------|
|-7/9-9-9-9---7/9-9-9-9---7-9-10-----7/9-9-9-9---7/9-9-9-7--7-|x4

BRIDGE 2 [3:18]
|---------------------------------------------------------------------|
|---------------------------------------------------------------------|
|-------5\2~-----/5-----5\2~-----/5-----5\2~-----/5-----5\2~-----/5---|
|-5~---------------5~--------------5~--------------5~--------------5~-|

BRIDGE 3 - PART 1 (SLIDES BEFORE SWITCHING STRINGS ARE FAST) [4:03] 
|-------------------------------------------------------------------|
|-------------------------------------------------------------------|
|-5\2-2-2-2-2-2-22/5--------------\5\2-2-2-2-2-2-22/5---------------|
|-------------------5-5-5-5-5-5-55-------------------5-5-5-5-5-5-55-|x1

BRIDGE 4 - PART 2 [4:24]
|--------------------------------------------------------|
|--------------------------------------------------------|
|-5\2-2-2-2-2-2-22/5--------------\5\2-2-2-2-2-2-2-22/16^|
|-------------------5-5-5-5-5-5-55-----------------------|x1

OUTRO - PART 1 [4:43]
|-----------------------------------------------------------------|
|-----------------------------------------------------------------|
|-----------------------------------------------------------------|
|-7/9-9-9-9---7/9-9-9-9---7-9-10---7/9-9-9-9---7/9-9-9-9---7-9-10-|x3

OUTRO - PART 2 [4:57]
|-------------------------------------------------------|
|-------------------------------------------------------|
|-------------------------------------------------------|
|-7/9-9-9-9---7/9-9-9-9--7-9-10---7/9-9-9-9---7/9-9-9-9-|
Comments