Godsmack - Spiral Chords & Tabs

 

Spiral Chords & Tabs

Godsmack Chords & Tabs

Version: 8 Type: Tab 0 ratings
1 star 2 stars 3 stars 4 stars 5 stars
comments

Spiral Tab

   
-----------------------------------------------------------------------------
			     SPIRAL - Godsmack
-----------------------------------------------------------------------------
Tabbed by: EvilInACloset
Email: thequietpiace@aol.com

Tuning: Dropped C (C,G,C,F,A,d)

Intro/Verse (also for pre-chorus)

1. Sometimes we only....
2. Why are we feeling...
e|---------------------------------------------------------------------------|
B|---------------------------------------------------------------------------|
G|---------------------------------------------------------------------------|
D|---------------------------------------------------------------------------|
A|--------------------------0-------------------------0----------------------|
E|--0---13---0--0--13--12p0-----0---13---0--0--13--12------------------------|

e|---------------------------------------------------------------------------|
B|---------------------------------------------------------------------------|
G|---------------------------------------------------------------------------|
D|---------------------------------------------------------------------------|
A|--------------------------0------------------------------------------------|
E|--0---13---0--0--13--12p0-----0---13---0--0--13--12------------------------|

Chorus:

   I feel rain...
e|---------------------------------------------------------------------------|
B|---------------------------------------------------------------------------|
G|---------------------------------------------------------------------------|
D|--5----5----5-----1-----------------10------8-7-------10------8-7----------|
A|--5----5----5-----1----1----1-3--0--8--0-0--6-5-6--0--8--0-0--6-5-6--------|
E|--5----5----5--0--1----1----1-3--0-----0-0------6--0-----0-0------6--------|
[ Tab from: http://www.guitartabs.cc/tabs/g/godsmack/spiral_tab_ver_8.html ]
   I wait to...
e|---------------------------------------------------------------------------|
B|---------------------------------------------------------------------------|
G|---------------------------------------------------------------------------|
D|--5----5----5--5/8----8\1---1--1-------------------------------------------|
A|--5----5----5--5/8----8\1---1--1-------------------------------------------|
E|--5----5----5--5/8----8\1---1--1-------------------------------------------|

   Rot away...                (listen to song for exact timing on this part)
e|---------------------------------------------------------------------------|
B|---------------------------------------------------------------------------|
G|---------------------------------------------------------------------------|
D|-----10------8-7-------10------8-7-------10------8-7-------10------8-7-----|
A|--0--8--0-0--6-5-6--0--8--0-0--6-5-6--0--8--0-0--6-5-6--0--8--0-0--6-5-----|
E|--0-----0-0------6--0-----0-0------6--0-----0-0------6--0-----0-0----------|

Solo: (Also used for outro repeat as needed)
e|---------------------------------------------------------------------------|
B|---10------13-10h11p10--------10-------------------------------------------|
G|----------------------12--------------10-9h10p9--7--9--7----7\5--7---------|
D|--0--0-----------------------0--0-------------------0----0--0--------------|
A|---------------------------------------------------------------------------|
E|---------------------------------------------------------------------------|

That's it kiddies!! A great song, personally one of my favorites by Godsmack.
It sounds pretty much accurate to me, I did the best I could. The solo/outro
part may be a little off, but play around with it and you should get it.

| /  slide up
| \  slide down
| h  hammer-on
| p  pull-off
| ~  vibrato
| +  harmonic
| x  Mute note
=============================================================================
Comments