Godsmack - Spiral Chords & Tabs

 

Spiral Chords & Tabs

Godsmack Chords & Tabs

Version: 5 Type: Tab 0 ratings
1 star 2 stars 3 stars 4 stars 5 stars
comments

Spiral Tab

   
Godsmack - Spiral
Drop C Tuning (CGCFAD)
email - GuitarFreak384@yahoo.com
  


  
   ~Verse~
D|-----------------------------------------------------------|
A|-----------------------------------------------------------|
F|-----------------------------------------------------------|
C|-----------------------------------------------------------|
G|---------------------0---------------------0---------------|
C|--0--15--0-0--13-12-0----0--15--0-0--13-12-----------------|

D|-----------------------------------------------------------|
A|-----------------------------------------------------------|
F|-----------------------------------------------------------|
C|-----------------------------------------------------------|
G|---------------------0-------------------------------------|
C|--0--15--0-0--13-12-0----0--15--0-0--13-12-----------------|
[ Tab from: http://www.guitartabs.cc/tabs/g/godsmack/spiral_tab_ver_5.html ]
  
   ~Chorus~
D|-----------------------------------------------------------|
A|-----------------------------------------------------------|
F|-----------------------------------------------------------|
C|-5--5--5-5-0--1--1---1/3-----10--------8--7----------------|
G|-5--5--5-5-0--1--1---1/3--0---8--0--0--6--5--6-------------|
C|-5--5--5-5-0--1--1---1/3--0------0--0--------6-------------|

D|-----------------------------------------------------------|
A|-----------------------------------------------------------|
F|-----------------------------------------------------------|
C|-5--5--5-5-5/8--8---1--1-----10--------8--7----------------|
G|-5--5--5-5-5/8--8---1--1--0---8--0--0--6--5--6-------------|
C|-5--5--5-5-5/8--8---1--1--0------0--0--------6-------------|


   ~Solo~
D|-----------------------------------------------------------|
A|---10---11-10h11p10--------10---13-10h11p10-------10-------|
F|--------------------12----------------------12-------------|
C|-0----0------------------0----0-----------------0----0-----|
G|-----------------------------------------------------------|
C|-----------------------------------------------------------|



D|-----------------------------------------------------------|
A|-----------------------------------------------------------|
F|---10-9h10p9----9------------------------------------------|
C|-------------12---12---0--10/12----------------------------|
G|-----------------------------------------------------------|
C|-----------------------------------------------------------|

 | /  slide up
 | h  hammer-on
 | p  pull-off
Comments