Godsmack - Spiral Chords & Tabs

 

Spiral Chords & Tabs

Godsmack Chords & Tabs

Version: 4 Type: Tab 0 ratings
1 star 2 stars 3 stars 4 stars 5 stars
comments

Spiral Tab

   
Godsmack - Spiral - "The Other Side"

Drop Db (Db Ab Db Gb Bb Eb)


INTRO

Eb ----5--5h6-5-3---5--8-6-5---5-------------------------|
Bb -------------------------------6-5-3-3h5-3-(3)---(3)--|
Gb ----------------------------------------------(5)-----|
Db --0------------0----------0---------------------------|
Ab ------------------------------------------------------|
Db ------------------------------------------------------|

VERSE

Eb ------------------------------------------------------|
Bb ------------------------------------------------------|
Gb ------------------------------------------------------|
Db ------------------------------------------------------|
Ab ---8-----6-6p5p0-----8-----6-5-(0)--------------------|
Db -0---0-0-----------0---0-0----------------------------|

CHORUS
[ Tab from: http://www.guitartabs.cc/tabs/g/godsmack/spiral_tab_ver_4.html ]
BASS
Db ------------------------------------------------------|
Ab --5-5-5-5-5--1-1-1-1-1--------------------------------|
Db --5-5-5-5-5--1-1-1-1-1--------------------------------|

GUITAR
Eb --3-3-3-3-3--6-6-6-6-6--------------------------------|
Bb --3-3-3-3-3--8-8-8-8-8--------------------------------|
Gb --0-0-0-0-0--8-8-8-8-8--------------------------------|

Eb ------------------------------------------------------|
Bb ------------------------------------------------------|
Gb ------------------------------------------------------|
Db ------------------------------------------------------|
Ab ---8-----6-6p5p0-----8-----6-5-(0)--------------------|
Db -0---0-0-----------0---0-0----------------------------|


LYRICS

Sometimes we only live for the here and now
Sometimes we're lonely.
Sometimes we feel we need a place to be grounded,
or fly away again

I will fly away again.

I feel rain pouring down. I wait to rot away,
live again, here forever, the spiral never ends.

Why are we feeling something's familiar around us?
Are we just dreaming?
Always we search for the answers but nothing is found.
We fly away again.

I will fly away again.


AUTHOR
Bruno Imbrizi
bruno.imbrizi@datasoft.com.br
Comments